Аккорды Ленинград - Полные карманы (У меня есть всё)

Добавлено: @romashka
Дата добавления: 26 Декабря 2021г.
Рейтинг:
0.0
Просмотров: 26
Транспонировать - +
Главнейший рифф: x2
e|----------------------------------------|
B|----------------------------------------|
G|----------------------------------------|
D|-----5-3---5----/-/-----5-3---5----/-/--|
A|-3-6-----6---3--/-/-3-6-----6---3--/-/--|
E|----------------/-/----------------/-/--|
  пабарипатурарум      пабарипатурарум

Cm                       A#7
Иду по улице с довольной рожей
Cm                       A#7
Мне удивляется каждый прохожий
Cm                       A#7
На ногах сандалии, на улице лето.
Cm                       A#7
У меня есть все, у меня есть все,
Cm                       A#7
(у него есть все)  (у него есть все)

Главнейший рифф:
e|----------------------------------------|
B|----------------------------------------|
G|----------------------------------------|
D|-----5-3---5----/-/-----5-3---5----/-/--|
A|-3-6-----6---3--/-/-3-6-----6---3--/-/--|
E|----------------/-/----------------/-/--|

Cm                       A#7
У меня есть все и еще вот это: (у него есть все)

Cm          A#7 
Полные карманы 
Cm          A#7 
Ма-а-ри-хуаны
Cm          A#7 
Полные карманы

Главнейший рифф:
e|----------------------------------------|
B|----------------------------------------|
G|----------------------------------------|
D|-----5-3---5----/-/-----5-3---5----/-/--|
A|-3-6-----6---3--/-/-3-6-----6---3--/-/--|
E|----------------/-/----------------/-/--|

Cm          A#7 
Ма-а-ри-хуаны

Cm                       A#7
Иду по улице с довольной рожей
Cm                       A#7
На встречу менты: - Попался, Сережа!
Cm                       A#7
- Ты что, начальник, не серчай,
Cm                     A#7
Какая трава? Какая трава? 
Cm                       A#7
Я вообще не знаю, что такое трава,

Главнейший рифф:
e|----------------------------------------|
B|----------------------------------------|
G|----------------------------------------|
D|-----5-3---5----/-/-----5-3---5----/-/--|
A|-3-6-----6---3--/-/-3-6-----6---3--/-/--|
E|----------------/-/----------------/-/--|

Cm                       A#7
А это, это, это - зеленый чай!
   
Cm          A#7 
Полные карманы
Cm          A#7 
Ма-а-ри-хуаны
Cm          A#7 
Полные карманы

Главнейший рифф:
e|----------------------------------------|
B|----------------------------------------|
G|----------------------------------------|
D|-----5-3---5----/-/-----5-3---5----/-/--|
A|-3-6-----6---3--/-/-3-6-----6---3--/-/--|
E|----------------/-/----------------/-/--|

Cm          A#7 
Ма-а-ри-хуаны
   
Cm                       A#7
Иду по улице с довольной рожей
Cm                       A#7
Мне удивляется каждый прохожий
Cm                       A#7
На ногах сандалии, на улице лето, лето-лето-лето
Cm                       A#7
У меня есть все, у меня есть все,
Cm                      A#7
(у него есть все) (у него есть все)

Главнейший рифф:
e|----------------------------------------|
B|----------------------------------------|
G|----------------------------------------|
D|-----5-3---5----/-/-----5-3---5----/-/--|
A|-3-6-----6---3--/-/-3-6-----6---3--/-/--|
E|----------------/-/----------------/-/--|

Cm                       A#7
У меня есть все и еще вот это: (у него есть все)

Cm          A#7 
Полные карманы
Cm          A#7 
Ма-а-ри-хуаны
Cm          A#7 
Полные карманы

Главнейший рифф:
e|----------------------------------------|
B|----------------------------------------|
G|----------------------------------------|
D|-----5-3---5----/-/-----5-3---5----/-/--|
A|-3-6-----6---3--/-/-3-6-----6---3--/-/--|
E|----------------/-/----------------/-/--|

Cm          A#7 
Ма-а-ри-хуаны

и / - удары по приглушенным струнам 
сверху и снизу соответственно 
Наверх