Аккорды Ленинград - Прощай

Добавлено: @romashka
Дата добавления: 27 Декабря 2021г.
Рейтинг:
0.0
Просмотров: 27
Транспонировать - +
Проигрыш:
E-------------|--------------
B-5--5--5-----|-55--5--5-----
G--7--5--4-2--|---7--5--4-2--
D-------------|--------------
A-------------|--------------
E-------------|--------------

Куплет:
Am       Dm  E     Am G6 
Твой телефон я удалю.
Am         Dm   E        Am G6 
Ты - пустозвон. Я не люблю!
Am        Dm E        Am G6 
   Ты обещал много чего,
Am          Dm E       Am G6 
   Но исполнял все хуёво.

Припев:
F          C
   Прощай, пиздабол!
E              Am     G
Не скучай, смотри футбол.
F          C
   Прощай, пиздабол!
E 
Не скучай, смотри футбол.

Проигрыш:
E-------------|--------------
B-5--5--5-----|-55--5--5-----
G--7--5--4-2--|---7--5--4-2--
D-------------|--------------
A-------------|--------------
E-------------|--------------

Куплет:
Am         Dm  E          Am G6 
Мне не звони     и не скули.
Am            Dm  E      Am G6 
Все с тобой дни - это нули!
Am            Dm  E           Am G6 
   Где палок нет, там нет любви.
Am              Dm  E          Am G6 
   Ну, все, привет! Мне не звони!

Припев:
F          C
   Прощай, пиздабол!
E               Am    G
Не скучай, смотри футбол.
F          C
   Прощай, пиздабол!
E 
Не скучай, смотри футбол.

Проигрыш:
E-------------|--------------
B-5--5--5-----|-55--5--5-----
G--7--5--4-2--|---7--5--4-2--
D-------------|--------------
A-------------|--------------
E-------------|--------------

Припев:
F          C
   Прощай, пиздабол!
E               Am    G
Не скучай, смотри футбол.
F          C
   Прощай, пиздабол!
E 
Не скучай, смотри футбол.

Проигрыш:
E-------------|--------------
B-5--5--5-----|-55--5--5-----
G--7--5--4-2--|---7--5--4-2--
D-------------|--------------
A-------------|--------------
E-------------|--------------

Am
Всё!

Наверх