Аккорды Ленинград - Батарея

Добавлено: @romashka
Дата добавления: 16 Марта 2013г.
Рейтинг:
0.0
Просмотров: 538
Транспонировать - +
Am [Филл 1]
Я обнимаю батарею,
Хочу тепла, хочу тепла,
Dm [Филл 2]
Хочу, чтоб эта батарея,
E7
Меня как баба обняла.

Am Dm E7 Am Dm E7
Батарея, батарея,
Am Dm E7 E7
Батарея полюби меня скорее!

Я так устал, я так измучен,
В моей душе десяток ран,
Я плачу как мудак последний,
Целуя батареи кран

Батарея, батарея,
Батарея полюби меня скорее!

Батарея, батарея,
Батарея полюби меня скорее!
Батарея, батарея,
Батарея полюби меня скорее!


Филл 1:

Am
e|---------------|
B|---------------|
G|---------------|
D|-2---0-2-0-----|
A|-----------3-2-|
E|---------------|

Филл 2:

Dm
e|---------------|
B|---------------|
G|-2---0-2-0-----|
D|-----------3-2-|
A|---------------|
E|---------------|
comments powered by Disqus
Наверх