Аккорды Ленинград - Будем веселиться

Добавлено: @romashka
Дата добавления: 16 Марта 2013г.
Рейтинг:
0.0
Просмотров: 459
Транспонировать - +
Am
Я включил свой микрофон: "Раз, два, три!"
Am Dm
Осветители зажгли фонари,
Dm Am
Все, пиздец, пора играть, хватит вам охуевать,
E7
Будем веселиться и будем танцевать.

[Соляк]
Танцуй, танцуй, танцуй, танцуй!


Соляк (классический джазовый рифф)

Am
e|-----------------------------|
B|-----------------------------|
G|-----------------------------|
D|-----2-----2-----2-----2---2-|
A|-0-3---0-3---0-3-----0---3---|
E|-----------------------------|

- 2 раза

Dm
e|-----------------------------|
B|-----------------------------|
G|-----2-----2-----2-----2---2-|
D|-0-3---0-3---0-3-----0---3---|
A|-----------------------------|
E|-----------------------------|

E7
e|-----------------------------|
B|-----------------------------|
G|-----4-----4-----4-----4---4-|
D|-2-5---2-5---2-5-----2---5---|
A|-----------------------------|
E|-----------------------------|

E7
e|-----------------------------|
B|-----------------------------|
G|-----------------------------|
D|-4-3-2-1-0-----------2-------|
A|-----------3-2-0--0----------|
E|-----------------------------|
comments powered by Disqus
Наверх