Аккорды Ленинград - Инструментал

Добавлено: @romashka
Дата добавления: 16 Марта 2013г.
Рейтинг:
0.0
Просмотров: 443
Транспонировать - +
Рифф главный:
E|---------------------------------|
B|---------------------------------|
G|---------------------------------|
D|---------------0-2-2-2-2-2-0-----|
A|-0-0-0-0-0-2-3---------------3-2-|
E|---------------------------------|

E|---------------0-|
B|---------------0-|
G|---------------1-|
D|---------------2-|
A|-0-0-0-0-0-2-3-2-|
E|---------------0-|

Другой Рифф:
E|------------------------------0-|
B|------------------------------0-|
G|------------------------------1-|
D|------2^0-2-[2-0----]---2^0-2-2-|
A|----0-------[----3-2]-0-------2-|
E|-0----------------------------0-|

в конце он играется иначе:
E|------------------------------0-|
B|------------------------------0-|
G|------------------------------1-|
D|------2^0-2-/7-7-7-5----2^0-2-2-|
A|----0-----------------0-------2-|
E|-0----------------------------0-|
comments powered by Disqus
Наверх