Аккорды Ленинград - Любовь

Добавлено: @romashka
Дата добавления: 16 Марта 2013г.
Рейтинг:
0.0
Просмотров: 477
Транспонировать - +
[Интро, оно же главный рифф]

Cm
Дело было весной, попрощавшись с тобой,
Я один поздно ночью возвращался домой,
Fm
Сердце гоняет по венам кровь,
G Cm
Ба-ба-ба-ба-ба ба-ба-ба-бам Любовь!

А вокруг тишина, не видать ни хрена,
Только сзади я слышу, как кто-то
крикнул мне "Стой!",
И вообще сердце гоняет по венам кровь,
Ба-ба-ба-ба-ба ба-ба-ба-бам Любовь!

Ла-ла-ла...
И вообще сердце гоняет по венам кровь,
Ба-ба-ба-ба-ба ба-ба-ба-бам Любовь!
Ба-ба-ба-ба-ба ба-ба-ба-бам Любовь!

Интро:

Cm G
G|---------------------------------|
D|-------------------------5-x-3-x-|
A|-3-3-3-3-3-3-6---3-3-3-3---------|
E|---------------------------------|

Cm G
G|---------------------------------|
D|---------------------------------|
A|-3-3-3-3-3-3-6-----------2-3-4-5-|
E|-----------------3-4-5-6---------|

Fm G
G|-------------------------5-x-3-x-|
D|-3-3-3-3-3-3-6---3-3-3-3---------|
A|---------------------------------|
E|---------------------------------|

Fm G
G|-----------------6-5-4-3---------|
D|-3-3-3-3-3-3-6-----------6-5-4---|
A|---------------------------------|
E|---------------------------------|
comments powered by Disqus
Наверх