Аккорды Ленинград - Прогноз погоды

Добавлено: @romashka
Дата добавления: 16 Марта 2013г.
Рейтинг:
0.0
Просмотров: 501
Транспонировать - +
E|--------------------------------------------------11---------|
B|--------------------------------------------9/8--------------|
G|-------------------------------------------------------------|
D|-------------------------------------------------------------|
A|-------------------------------------------------------------|
E|---7--5--3--7--5--3--7--5--3--7--5--3---8--------------------|

E|-------------------------------------------------------------|
B|-------------------------------------------------------------|
G|------------------------8v-----------------------------------|
D|-------------------------------------------------------------|
A|-------------8-----------------------------------------------|
E|-----8-8-8-8---8-9-------------------------------------------|

E|-------------------------------------------------------------|
B|----------------------------11-11-11-11-11-11/10-10-10-10-10-|
G|-------------------------------------------------------------|
D|-------------------------------------------------------------|
A|-------------------------------------------------------------|
E|-7-5-3-7-5-3-7--5--3--7--5--3---8----------------------------|

E|-------------------------------------------------------------|
B|-10-10-10-10-------------------------------------------------|
G|---------------8-И тут начинается аккомпанемент...-----------|
D|-------------------------------------------------------------|
A|-------------8-----------------------------------------------|
E|-----8-8-8-8-------------------------------------------------|

 Am
По телеку идет прогноз погоды
 Am
Диктор всех поздравил с новым годом
 Dm
А ты мне бухнуть не даешь ни фига
 E7                     E     Am
У нас в отношениях сплошная пурга

По телеку идет погоды прогноз
У нас в отношениях серьезный мороз
А если прикинуть по Цельсию бля
К тебе охладел я почти до нуля

Не надо истерик, вот этих бля слез
Это всего лишь погоды прогноз...
comments powered by Disqus
Наверх