Аккорды Ленинград - Таблетка

Добавлено: @romashka
Дата добавления: 16 Марта 2013г.
Рейтинг:
0.0
Просмотров: 446
Транспонировать - +
[Интро]

Am Dm
Недавно я в последней электричке,
E Am
С одной девчонкой познакомился,
И вот уже 4 дня,
Не жизнь, одна бессонница

Dm Am
Доктор, выпиши таблетку,
E Am
Дай таблетку от любви!
Не могу я жить без Светки,
Хоть мне сердце с корнем рви.
Не могу я жить без Светки,
Хоть мне сердце с корнем рви.

Пытался я ее забыть,
Но стал тогда я часто напиваться,
Но не залечишь в сердце рану,
Когда любовь - твое несчастье.

Доктор, выпиши таблетку,
Дай таблетку от любви!
Не могу я жить без Светки,
Хоть мне сердце с корнем рви.
Не могу я жить без Светки,
Хоть мне сердце с корнем рви.


Интро:

Am Dm
e|---------------------------------------------|
B|---------------------------------------------|
G|---------------------------------------------|
D|---------------------------------------------|
A|-0-0-2-3-0--3-2-1-0------0-0-2-3-0--3--------|
E|--------------------------------------3-2-1--|

Dm Am E7
e|---------------------------------------------|
B|---------------------------------------------|
G|---------------------------------------------|
D|---------0----------------0-------2--5-4-3-2-|
A|-0-0-2-3---3-2-0--0-0-2-3---3-2-0------------|
E|---------------------------------------------|
comments powered by Disqus
Наверх