Аккорды Ленинград - Французская помада

Добавлено: @romashka
Дата добавления: 16 Марта 2013г.
Рейтинг:
0.0
Просмотров: 515
Транспонировать - +
[интро]

[рифф]

 Fm                        Cm
Ты сегодня французской помадой
 G               Cm
Напомадила губы свои,
А мне кажется будто измазан
Весь твой рот в моей алой крови.

[рифф]

Я тебя умолял будь моею,
Заебался пиздеть про любовь,
Но не хочешь мне хуй пососать ты,
Любишь ты лишь сосать мою кровь.


[рифф]

Ааааа....


Интро:

Cm G Fm G
e|----------------------------------------------|
B|----------------------------------------------|
G|----------------------------------------------|
D|------3-----------------------------5-3-------|
A|-3--6---6-----5-6-5-----3-5-3-----6-----6-5-3-|
E|-----------3---------1---------3--------------|


Рифф:

   Cm                       G
e|----------------------------|
B|----------------------------|
G|----------------------------|
D|----------3-----------------|
A|-3-3-3--6---6---------5-6-5-|
E|---------------3-3-3--------|

   Fm                             G
e|----------------------------------|

B|----------------------------------|
G|----------------------------------|
D|------------------------5-3-------|
A|--------3-5-3---------6-----6-5-3-|
E|-1-1-1---------3-3-3--------------|
comments powered by Disqus
Наверх