Аккорды Ленинград - Х… в пальто

Добавлено: @romashka
Дата добавления: 16 Марта 2013г.
Рейтинг:
0.0
Просмотров: 507
Транспонировать - +
Fm
Я приполз домой
G#
И звоню в звонок,
Fm
Блюю, шатаюсь,
G#
Насквозь промок.

Fm
А ты мне из-за двери:
G#
- А это, бля, кто?
Fm
А я ответил:
G#
- Твой хуй в пальто!

Рифф Два (играется 4 раза)
(Че-Че-Че-Чекитаут-Йо!)

Рифф Один (играется или весь куплет
или как вступление к нему - раза 4)

Ползу домой, Ползу домой,
Звоню в звонок,
Я весь промок!

А ты мне из-за двери:
- А это, бля, кто?
А я ответил:
- Твой хуй в пальто!

Рифф Два (играется 4 раза)
Бас Рифф (играется 1 раз)
Трубное соло (играется 3-4 раз)

Я хуй в пальто!
Рифф Два (играется 4 раза)

Рифф Один играется таким образом:
Fm G#
e|----------------------------------------|
B|-----1-------1-------1------------------|
G|---1---1---1---1---1---1-3-1-4-1--------|
D|-3-------3-------1----------------------|
A|----------------------------------------|
E|----------------------------------------|
(после каждой сыгранной ноты надо приглушать
струну немного отпуская палец левой руки)

Рифф Два играется так (или с вариациями:)
Fm G#
e|----------------------------------------|
B|----------------------------------------|
G|------------------------1-3-1-4-1-------|
D|-3-3-3--3-3-3-3--1-1--1-----------------|
A|----------------------------------------|
E|----------------------------------------|

Трубное соло на гитаре, кажется, выглядит так:
Fm G#
e|--------------------------------------------|
B|--------------------------------------------|
G|--------------------------------------------|
D|------------3---3---3-----------------------|
A|-------1--3---3---3----3-1-----1--3-1-----1-|
E|-1-3-4---------------------4-3--------4-3---|

Бас Рифф:
Fm G#
e|--------------------------------------------|
B|--------------------------------------------|
G|--------------------------------------------|
D|--------------------------------------------|
A|-----3--------3--------3----1---2-----------|
E|-1-4---4--1-4---4----4---4----4---4---------|
comments powered by Disqus
Наверх