Аккорды Леонид Фёдоров - На краю

Добавлено: @romashka
Дата добавления: 04 Июня 2013г.
Рейтинг:
5.0
Просмотров: 917
Транспонировать - +
Rif1 | 4-струна| 0-2-3-0-0-2-3-0-0-2-3-0-0-2-3-0 

Rif2 | 4-струна| 2-3-5-2-2-3-5-2-2-3-5-2-2-3-5-0

Rif3
1|-------------------------------------------------
2|-------------------------------------------------
3|---0-2------0-2--------------------------------
4|-3-----3-3------3-2-3-5-2-2-3-5-2----------
5|-------------------------------------------------
6|-------------------------------------------------

Вступление: Rif1 Rif2 Rif3 (можно с 3 струны 7 лада) Dm

Dm                        Gm       A7
Ночь темна, бежит дорога, катится луна,

Fm           A7       Dm
От порога и до Бога ночь темна.

Dm                         Gm            A7
Словно птица, ночь кружится, я тебе спою.

Fm               A7       Dm
Пусть тебя оставит грусть в том краю.

A7
На краю...

Fm           A7            Dm
Пусть тебя оставит грусть на краю.

A7
В том краю...

Fm           A7           Dm
Пусть тебя оставит грусть

Темной ночью в темном небе черная луна.
Ты один и я одна, ночь темна.
Ночь темна...
Ты один, я одна, ночь темна.
Ночь темна...
Ты один, я одна... 

Ярче дня взлетает птица, падает, звеня
Не найти тебе пути без меня
Без меня
Не найти тебе пути без меня
Без меня
Не найти тебе пути

Не проститься, не забыться, спи, усни, пока
Не найти тебе пути, не найти.
Не найти...
Не найти тебе пути, не найти
Не найти...
Не найти тебе пути, не найти


Dm
1|----1--|-------|------|
2|-------|-------|---3--|
3|-------| --2---|------| 
4|----0--|-------|------| 
5|----0--|-------|------| 
6|----0--|-------|------| 

Gm
1|---x---|------|-------|
2|-------|------|---3---|
3|-------|------|---2---| 
4|---0---|------|-------| 
5|---x---|------|-------| 
6| ------|------|---1---| 

A7
1|---0--|-------|------|
2|------| ---3--|------|
3|--0---|-------|------| 
4|------|---2---|------| 
5|---1--|-------|------| 
6|---x--|-------|------| 

Fm
1|---x--|-------|------|
2|---1--|-------|------|
3|------|---2---|------| 
4|------|-------|--4---| 
5|------|-------|--3---| 
6|---1--|-------|------|
Наверх