Аккорды Леонид Сергеев - Народная

Добавлено: @romashka
Дата добавления: 03 Июня 2013г.
Рейтинг:
5.0
Просмотров: 537
Транспонировать - +
intro:

Гитара
    Dm              
1|----------5---------7-----7-----   |
2|--------6---6---6-----6-----6---   |
3|------7-------7---5-----5-----5-   |
4|--0-----------------------------   |
5---------------------   | 
6---------------------   |
 
  7-----8-----7------5---------  
  --6--------------------------
  ---------5-----5------------- 
  -----------------------------
  -----------------------------
  -----------------------------                     
Am              
1|----------0-------------------0---------
2|--------1---1---1-----------1---1---1---
3|------2-------2---2-------2-------2---2-
4-----------------------------
5|--0-------------------0-----------------
6-----------------------------             



Вокал 

(под вышеуказанный аккомпанимент)

Dm
Жили- были, не тужили,
Am
То ли сказка, то ли быль.
Ветры буйны закружили,
Поднялась густая пыль

Bb
Запорошило глаза,
F
Кто тут прав, кто виноват.
Dm         Am
Налетевшие казаки
         E         Am
Сходу грохнули в напад.
----------------
Dm
И согнали всех на площадь
   Am  x y  xy  Am
К атаманскому крыльцу
С тех, кто выглядел попроще
Сбили плетками пыльцу,
---------------
Bb
-Вы,-сказал нам атаман,-
  F
Ох, намаялись в пути,
Dm    Am
Слава Богу, окаянных
E     Am
Я злодеев победил.

Вы мне дети, я вам отче.
Как ведется на Руси,
Я тому, кто был попроще,
Плеткой лоб перекретил. x y  xy  Am
-------------------------
И продолжил: "Надо Крестный
Непременно сделать ход,
Чтоб к обеду, хоть ты тресни,
А срубили прочный плот.

Чтобы мы спокойно жили
И во сне, и наяву,
Как бы волны да не бурлили,
Мы б держались на плаву".
_____
(как в начале)

Он закончил, засвистали
Плетки дюжих удальцов.
Кто попроще заурали,
Вспомнив всех святых отцов.

Поплевали на мозоли
И взялись за тороры
Зубы стиснули до боли
И пошли ломать дворы 
_________
Избы, изгороди, клети,
Не жалей, давай ишо!
Нам бы только жить на свете:
На плаву и хорошо.

Долго-ль, коротко-ль корпели,
Но готов огромный плот
Не страшны любые мели,
Слава Богу, и вперед!

Только Отче,
А куда же 
Мы с тобой поплывем?

Вместо волн
Одни овражья, 
Вместо сини
Чернозем!

Заблажили, заорали,
Поднялась густая пыль,
Все глаза позакрывали, 
То ли сказка, то ли быль.

А когда из серой тучи
Руки вскинеулись к венцу,
С тех, кто выглядел...получше,
Сбили саблями пыльцу.
comments powered by Disqus
Наверх