Аккорды Lily Rose - Overnight Sensation

Добавлено: @romashka
Дата добавления: 23 Марта 2024г.
Рейтинг:
0.0
Просмотров: 25
Транспонировать - +
INTRO:
   G            G           Cmaj7        Cmaj7
E ------------|------------|------------|------------|
B ----3-0-1-0-|----3-0-1-0-|----3-0-1-0-|----3-0-1-0-|
G ---0--------|---0--------|---0--------|---0--------|
D --0---------|--0---------|--2---------|--2---------|
A -2----------|-2----------|-2----------|-2----------|
E ------------|------------|------------|------------|

VERSE:
 G
Lookin' at the faces starin' back at me
 C
Stage lights are blindin', they're reminding me

    Em            D       
Of playin' on my bedroom floor
 G             C
Mama's back against the door

          Em              D                C   C
Sayin', "Baby, won't you sing me one more song"

VERSE:
 G
Drivin' and my song comes on the radio
    C
It brings me back to days when I didn't know

   Em        D
If anybody'd even show
     G                C
And was it worth the miles I drove?

       Em               D         C  C
'Cause no one knows my name in Tokoa

CHORUS:
D       Em    C                    G
No one knows quite how this thing goes
        D        Em      C      C
There's no right way to chase it

 D    Em       C                   G
After all the booze and tears and patience
       D             Em    C
I'm an overnight sensation

 C                     G    
Thirteen years in the makin'

   G            G           
E ------------|------------|
B ----3-0-1-0-|----3-0-1-0-|
G ---0--------|---0--------|
D --0---------|--0---------|
A -2----------|-2----------|
E ------------|------------|

VERSE:
       G
Don't wonder anymore if my dad's proud of me
                 C
'Cause now he's stand aside of stage singin' my melodies

     Em         D
I remember him askin' me
  G               C
"Why you wastin' your degree

       Em               D           C   C
For a couple part-time jobs and a dream?"

CHORUS:
D       Em    C                    G
No one knows quite how this thing goes
        D        Em      C
There's no right way to chase it

 D    Em       C                   G
After all the booze and tears and patience
       D             Em    C
I'm an overnight sensation

 C                     D    Em  C    D  Em  C
Thirteen years in the makin'

BREAK:
            D                 Em
There's no map for this damn promised land
    C                     G
No blueprint, there's no master plan
    D                 Em              C   C  C  C
And no way of knowin' if, or how, or when

VERSE:
     G
Sometimes I miss the days when I was seventeen
        C
Wasn't worried about the money or singin' out of key

      Em                 D
But I set my course for the unknown
 G                C
Worked my fingers to the bone

 Em              D                C   C
Hurt like Hell, goin' through it then

 Em              D           C
Lookin' back I'd do it all again

CHORUS:
D       Em    C                    G
No one knows quite how this thing goes
        D        Em      C      C
There's no right way to chase it

 D    Em       C                   G
After all the booze and tears and patience
       D             Em    C
I'm an overnight sensation

OUTRO:
       D          Em      C
I'm an overnight sensation
 C                     G      
Thirteen years in the makin'

   G            G           Cmaj7        Cmaj7         G
E ------------|------------|------------|------------|-3-|
B ----3-0-1-0-|----3-0-1-0-|----3-0-1-0-|----3-0-1-0-|-3-|
G ---0--------|---0--------|---0--------|---0--------|-0-|
D --0---------|--0---------|--2---------|--2---------|-0-|
A -2----------|-2----------|-2----------|-2----------|-2-|
E ------------|------------|------------|------------|-3-|
Наверх