Аккорды Ling Tosite Sigure - Unravel (из мультфильма "Токийский гуль")

Добавлено: @romashka
Дата добавления: 14 Августа 2019г.
Рейтинг:
0.0
Просмотров: 16
Транспонировать - +
Intro:
e|---3--5---3--2---0-----5---3---2----0-------0-----------------------|
B|-----------------------------------------------3------3---1---3---0-|
G|--------------------------------------------------------------------|
D|--------------------------------------------------------------------|
A|--------------------------------------------------------------------|
E|--------------------------------------------------------------------|
   oshiete oshiete yo,  sono shikumi wo ...

e|---------------5--7----2--2----2--2---3--3-|
B|--0--0---0--0------------------------------|
G|-------------------------------------------|
D|-------------------------------------------|
A|-------------------------------------------|
E|-------------------------------------------|
   boku no naka ni  , dare ga iru no? 

e|---3--5---3--2---0-----5---3---2----0-------0-----------------------|
B|-----------------------------------------------3------3---1---3---0-|
G|--------------------------------------------------------------------|
D|--------------------------------------------------------------------|
A|--------------------------------------------------------------------|
E|--------------------------------------------------------------------|
  kowareta .. kowareta yo kono sekai de

e|---------------5--7----2--2----2--2---3--3-|
B|--0--0---0--0------------------------------|
G|-------------------------------------------|
D|-------------------------------------------|
A|-------------------------------------------|
E|-------------------------------------------|
  kimi ga waraunanimo miezu ni

Instrumental: Em D C G | Em D C Bm

Verse:
Em            C         D         G
Kowareta boku nante sa iki wo tomete 
Em            C                    D         G          
Hodokenai mou hodokenai yo shinjitsu sae freeze 
Em                 Bm              
Kowaseru kowasenai kurueru kuruenai 
Am             G        Bm
Anata wo mitsukete yureta

Hook:
C                D               Em          Bm
Yuganda sekai ni dan dan boku wa sukitootte mienaku natte 
C            D           Em        G
Mitsukenaide boku no koto wo (mitsumenaide)
C                D                Em   
Dareka ga egaita sekai no naka de anata 
                  Bm
Wo kizutsuketaku wa nai yo  
C         D              C Em D      
Oboeteite boku no koto wo                        
Em           C Em D Em
Azayaka na mama

Bridge:
 C         G          Em                                
Mugen ni hirogaru kodoku ga karamaru
    D              Bm
Mujaki ni waratta kioku ga sasatte 
   C                 Em             D         
Ugokenai ugokenai ugokenai ugokenai ugokenai ugokenai yo 
                     Bm
- scream - unravelling the world

Instrumental: C D Em Bm C D Em G
              C G D Em G D C D Em Bm 

Verse:
Em               C
Kawatte shimatta kaerarenakatta 
G                   Am
Futatsu ga karamaru futari ga horobiru 
G                  C
Kowaseru kowasenai kurueru kuruenai 
D            Em
Anata wo kegasenai yo yureta

Hook:
C                D               Em           Bm
Yuganda sekai ni dan dan boku wa sukitootte mienaku natte 
C                 D       Em       Bm
Mitsukenaide boku no koto wo (mitsumenaide)
C                  D                 Em   
Dareka ga shikunda kodoku na wana ni mirai 
              Bm
Ga hodokete shimau mae ni 
C           D                  C   D   Em           Bm
Omoidashite boku no koto wo            azayaka na mama
C           D           Em          D
Wasurenaide wasurenaide wasurenaide wasurenaide

Outro:
C                D
Kawatte shimatta koto ni paralyze 
Em              Bm
Kaerarenai koto darake no paradise
C         D            C Em D Em
Oboeteite boku no koto wo
 C    Em D Em     C          Em    D       Em (strum once)
Oshiete   oshiete boku no naka ni dare ga iru no?
comments powered by Disqus
Наверх