Аккорды Mahavishnu Orchestra - You Know You Know

Добавлено: @romashka
Дата добавления: 08 Декабря 2017г.
Рейтинг:
0.0
Просмотров: 206
Транспонировать - +
This is the guitar and bass riff:
                       ~
||------------------|---|------||----|
||------------------|---|------||----|
||-----7------6-----|---|------||----|
||------------------|-2-|-(2)--||----|
||---9------7-------|---|------||----|
||-7------5-----0-3-|---|------||----|


 The violin part has a slight variation, and is played an octave higher than written 
The first two times, it is

||--------------------|----------|---------||
||--------------------|----------|--------o||
||-----7-----6-4------|----------|---------||
||---------------5----|----------|---------||
||---9-----7----------|-7--------|--------o||
||-7-----5------------|----------|---------||

Then
                   ~
|-----------------|----|--------|
|-----------------|----|--------|
|-----7-----6-----|----|--------|
|---------------5-|----|--------|
|---9-----7---7---|-7--|--------|
|-7-----5---------|----|--------|


Then it is

                       ~
|---------------------|------|
|---------------------|------|
|-----7-----6-7-6-4---|------|
|-------------------5-|------|
|---9-----7-----------|-7----|
|-7-----5-------------|------|
Наверх