Аккорды Маша и Медведи - Любочка

Добавлено: @romashka
Дата добавления: 08 Января 2022г.
Рейтинг:
0.0
Просмотров: 10
Транспонировать - +
[Intro]

e|--------|
B|--------|
G|--------|
D|-5-5-5--|  2x
A|5-6-7-6-|
E|--------|

         G        |        B7       |       G        |       B7        |
e|----------------|-----------------|----------------|-----------------|
B|----------------|-----------------|----------------|-----------------|
G|----------------|-----------------|----------------|-----------------|
D|5--4--5-2--1--2-|-7--5--4-4--5--7-|5--4--5-2--1--2-|-7--5--4-7--5--4-|
A|----------------|-----------------|----------------|-----------------|
E|----------------|-----------------|----------------|-----------------|


       C    |    Cm     |         G            |     D     |    C       |
e|----------|-----------|----------------------|-----------|------------|
B|----------|-----------|----------------------|-----------|------------|
G|----------|-----------|----------------------|-----------|------------|
D|10--9--10-|-10--9--10-|-5--4--5--5-5-5-------|-10-10-9-5-|------------|
A|----------|-----------|---------5-6-7-8-8(?)-|-----------|------------|
E|----------|-----------|----------------------|-----------|------------|





[Verse 1]
         G        |        B7       |       G        |       B7        |
e|----------------|-----------------|----------------|-----------------|
B|----------------|-----------------|----------------|-----------------|
G|----------------|-----------------|----------------|-----------------|
D|5--4--5-2--1--2-|-7--5--4-4--5--7-|5--4--5-2--1--2-|-7--5--4-7--5--4-|
A|----------------|-----------------|----------------|-----------------|
E|----------------|-----------------|----------------|-----------------|


       C    |    Cm     |         G            |     D     |    C       |
e|----------|-----------|----------------------|-----------|------------|
B|----------|-----------|----------------------|-----------|------------|
G|----------|-----------|----------------------|-----------|------------|
D|10--9--10-|-10--9--10-|-5--4--5--5-5-5-------|-10-10-9-5-|------------|
A|----------|-----------|---------5-6-7-8-8(?)-|-----------|------------|
E|----------|-----------|----------------------|-----------|------------|





[Chorus]

         G        |        B7     |  x3





[Solo]
Power chords (верхние две струны)
    G  |  B7  |    G     |   B7  |   C   |   G  |       D       |
e|-----|------|----------|-------|-------|------|---------------|
B|15-3-|-4-16-|-15-12-11-|-12----|--13-8-|-15-8-|-------15-19-22|
G|-----|------|----------|—12-14-|-------|------|-11-14---------|
D|-----|------|----------|-------|-------|------|---------------|
A|-----|------|----------|-------|-------|------|---------------|
E|-----|------|----------|-------|-------|------|---------------|





[Verse 2]
         G        |        B7       |       G        |       B7        |
e|----------------|-----------------|----------------|-----------------|
B|----------------|-----------------|----------------|-----------------|
G|----------------|-----------------|----------------|-----------------|
D|5--4--5-2--1--2-|-7--5--4-4--5--7-|5--4--5-2--1--2-|-7--5--4-7--5--4-|
A|----------------|-----------------|----------------|-----------------|
E|----------------|-----------------|----------------|-----------------|


       C    |    Cm     |         G            |     D     |    C       |
e|----------|-----------|----------------------|-----------|------------|
B|----------|-----------|----------------------|-----------|------------|
G|----------|-----------|----------------------|-----------|------------|
D|10--9--10-|-10--9--10-|-5--4--5--5-5-5-------|-10-10-9-5-|------------|
A|----------|-----------|---------5-6-7-8-8(?)-|-----------|------------|
E|----------|-----------|----------------------|-----------|------------|




[Chorus]

         G        |        B7     |  x7


[Bridge]

        G power chord две верхние струны    | x4



[Verse 3]

         G        |        B7       |       G        |       B7        |
e|----------------|-----------------|----------------|-----------------|
B|----------------|-----------------|----------------|-----------------|
G|----------------|-----------------|----------------|-----------------|
D|5--4--5-2--1--2-|-7--5--4-4--5--7-|5--4--5-2--1--2-|-7--5--4-7--5--4-|
A|----------------|-----------------|----------------|-----------------|
E|----------------|-----------------|----------------|-----------------|


       C    |    Cm     |         G            |     D     |    C       |
e|----------|-----------|----------------------|-----------|------------|
B|----------|-----------|----------------------|-----------|------------|
G|----------|-----------|----------------------|-----------|------------|
D|10--9--10-|-10--9--10-|-5--4--5--5-5-5-------|-10-10-9-5-|------------|
A|----------|-----------|---------5-6-7-8-8(?)-|-----------|------------|
E|----------|-----------|----------------------|-----------|------------|





[Chorus/Outro/Solo]

         G        |        B7     |  x8



    G  |  B7  |    G     |     B7      |   G  |  B7  |
e|-----|------|----------|-------------|------|------|
B|15-3-|-4-16-|-15-12-11-|-12-15-16(?)-|-15-3-|-4-16-|
G|-----|------|----------|—------------|------|------|
D|-----|------|----------|-------------|------|------|
A|-----|------|----------|-------------|------|------|
E|-----|------|----------|-------------|------|------|



e|--------|
B|--------|
G|--------|
D|-5-5-5--|  10x
A|5-6-7-6-|
E|--------| 
Наверх