Аккорды Menica Rondelly - Nissa La Bella

Добавлено: @romashka
Дата добавления: 31 Марта 2024г.
Рейтинг:
0.0
Просмотров: 25
Транспонировать - +
Capo I

[Verse 1]
               C                                                                             G
e|--------0---|0-------0---|1-------0---|------------|--------0---|0-------0---|------------|------------|
B|------------|------------|------------|1-----------|1-----------|------------|3-------1---|3-----------|
G|------------|------------|------------|------------|------------|------------|------------|------------|
D|------------|------------|------------|------------|------------|------------|------------|------------|
A|------------|------------|------------|------------|------------|------------|------------|------------|
E|------------|------------|------------|------------|------------|------------|------------|------------|
  1 & 2 & 3 &  1 & 2 & 3 &  1 & 2 & 3 &  1 & 2 & 3 &  1 & 2 & 3 &  1 & 2 & 3 &  1 & 2 & 3 &  1 & 2 & 3 &
          O   la      miéu bel  -  la    Nis    -    sa      Re - gi   -   na   de      li  flou

               G7           G                                      G7                        C
e|------------|1-------1---|------------|------------|------------|1-------1---|------------|------------|
B|--------3---|------------|0-------1---|3-----------|3-------3---|------------|--------0---|1-----------|
G|------------|------------|------------|------------|------------|------------|2-----------|------------|
D|------------|------------|------------|------------|------------|------------|------------|------------|
A|------------|------------|------------|------------|------------|------------|------------|------------|
E|------------|------------|------------|------------|------------|------------|------------|------------|
  1 & 2 & 3 &  1 & 2 & 3 &  1 & 2 & 3 &  1 & 2 & 3 &  1 & 2 & 3 &  1 & 2 & 3 &  1 & 2 & 3 &  1 & 2 & 3 &
         Li tiéu      vie - hi     tau - lis    -    sa      Iéu  can   -   te-rai     tou - jou

                                                                                             G
e|--------0---|0-------0---|1-------0---|------------|---------0--|0-------0---|------------|------------|
B|------------|------------|------------|1-----------|1-----------|------------|3-------1---|3-----------|
G|------------|------------|------------|------------|------------|------------|------------|------------|
D|------------|------------|------------|------------|------------|------------|------------|------------|
A|------------|------------|------------|------------|------------|------------|------------|------------|
E|------------|------------|------------|------------|------------|------------|------------|------------|
  1 & 2 & 3 &  1 & 2 & 3 &  1 & 2 & 3 &  1 & 2 & 3 &  1 & 2 & 3 &  1 & 2 & 3 &  1 & 2 & 3 &  1 & 2 & 3 &
         Can - te  -  rai  li     moun - ta     -     gna     Lu tiéu     tant ric     de - cor

               G7           G                                      G7                        C
e|------------|1-------1---|------------|------------|------------|1-------1---|------------|------------|
B|--------3---|------------|0-------1---|3-----------|3-------3---|------------|--------0---|1-----------|
G|------------|------------|------------|------------|------------|------------|2-----------|------------|
D|------------|------------|------------|------------|------------|------------|------------|------------|
A|------------|------------|------------|------------|------------|------------|------------|------------|
E|------------|------------|------------|------------|------------|------------|------------|------------|
  1 & 2 & 3 &  1 & 2 & 3 &  1 & 2 & 3 &  1 & 2 & 3 &  1 & 2 & 3 &  1 & 2 & 3 &  1 & 2 & 3 &  1 & 2 & 3 &
          Li tiéu     ver - di     cam - pa    -    gna      Lou  tiéu    gran sou  -  lèu  d’or

[Chorus]
                                         G                                                   C
e|------------|------------|------------|------------|------------|------------|------------|------------|
B|------------|1-------0---|3-----------|0-----------|---------0--|0-------0---|--------0---|------------|
G|--------0---|------------|--------2---|------------|------------|------------|2-----------|2-----------|
D|------------|------------|------------|------------|------------|------------|------------|------------|
A|------------|------------|------------|------------|------------|------------|------------|------------|
E|------------|------------|------------|------------|------------|------------|------------|------------|
  1 & 2 & 3 &  1 & 2 & 3 &  1 & 2 & 3 &  1 & 2 & 3 &  1 & 2 & 3 &  1 & 2 & 3 &  1 & 2 & 3 &  1 & 2 & 3 &
          Tou - jou   iéu can   -  te - rai                    Sou-ta      li  tiéu    tou - nel -  -  -

                                         G7                        G                         C
e|------------|------------|---------0--|1-----------|------------|------------|------------|0-----------|
B|------------|--------0---|3-----------|------------|------------|3-----------|--------1---|------------|
G|0-----------|0-----------|------------|------------|--------0---|------------|------------|------------|
D|------------|------------|------------|------------|------------|------------|------------|------------|
A|------------|------------|------------|------------|------------|------------|------------|------------|
E|------------|------------|------------|------------|------------|------------|------------|------------|
  1 & 2 & 3 &  1 & 2 & 3 &  1 & 2 & 3 &  1 & 2 & 3 &  1 & 2 & 3 &  1 & 2 & 3 &  1 & 2 & 3 &  1 & 2 & 3 &
  la          La     tiéu  mar      d’a-zur                  Lou tiéu,                 cièl  pur

                                         G                                                   C
e|------------|------------|------------|------------|------------|------------|------------|------------|
B|------------|1-------0---|3-----------|0-----------|--------0---|0--------0--|--------0---|------------|
G|--------0---|------------|--------2---|------------|------------|------------|2-----------|2-----------|
D|------------|------------|------------|------------|------------|------------|------------|------------|
A|------------|------------|------------|------------|------------|------------|------------|------------|
E|------------|------------|------------|------------|------------|------------|------------|------------|
  1 & 2 & 3 &  1 & 2 & 3 &  1 & 2 & 3 &  1 & 2 & 3 &  1 & 2 & 3 &  1 & 2 & 3 &  1 & 2 & 3 &  1 & 2 & 3 &
          E tou   -   jou cri   -  de  - rai                 en   la       miéu ri  -  tour - nel - - - -

               F                                                   C
e|------------|------------|------------|------------|------------|0-----------|------------|------------|
B|------------|------------|------------|------------|--------1---|------------|------------|------------|
G|0-------0---|2-----------|------------|------------|------------|------------|------------|------------|
D|------------|------------|------------|------------|------------|------------|------------|------------|
A|------------|------------|------------|------------|------------|------------|------------|------------|
E|------------|------------|------------|------------|------------|------------|------------|------------|
  1 & 2 & 3 &  1 & 2 & 3 &  1 & 2 & 3 &  1 & 2 & 3 &  1 & 2 & 3 &  1 & 2 & 3 &  1 & 2 & 3 &  1 & 2 & 3 &
  la     Vi - va,                                             vi - va,

               G                         C                         F
e|---------0--|------------|------------|------------|------------|------------|------------|------------|
B|----1-------|3-----------|------------|1-----------|------------|------------|------------|------------|
G|0-----------|------------|------------|------------|--------0---|2-----------|------------|------------|
D|------------|------------|------------|------------|------------|------------|------------|------------|
A|------------|------------|------------|------------|------------|------------|------------|------------|
E|------------|------------|------------|------------|------------|------------|------------|------------|
  1 & 2 & 3 &  1 & 2 & 3 &  1 & 2 & 3 &  1 & 2 & 3 &  1 & 2 & 3 &  1 & 2 & 3 &  1 & 2 & 3 &  1 & 2 & 3 &
  Nis-sa   la Bel - - - - - - - - - - - -la                   Vi - va,

               C                                                   G                         C
e|------------|0-----------|------------|------------|--------0---|------------|------------|------------|
B|--------1---|------------|------------|------------|----1-------|3-----------|------------|1-----------|
G|------------|------------|------------|------------|0-----------|------------|------------|------------|
D|------------|------------|------------|------------|------------|------------|------------|------------|
A|------------|------------|------------|------------|------------|------------|------------|------------|
E|------------|------------|------------|------------|------------|------------|------------|------------|
  1 & 2 & 3 &  1 & 2 & 3 &  1 & 2 & 3 &  1 & 2 & 3 &  1 & 2 & 3 &  1 & 2 & 3 &  1 & 2 & 3 &  1 & 2 & 3 &
         vi - va,                                     Nis-sa  la  Bel - - - - - - - - - - - -la  
Наверх