Аккорды Metallica - Until It Sleeps (Acoustic)

Добавлено: @romashka
Дата добавления: 19 Июня 2024г.
Рейтинг:
0.0
Просмотров: 26
Bass Intro:
|----------------------------------|
|----------------------------------|
|----------------------------------|
|---0-5--7/8--7--0-5--7/8--1--5----|

Verse Riff:

     Am

e|--------0---------------------------------0---------|
B|-----------3-----1-----0------------------1---------|
G|-------------------------------2-----0----2---------|
D|-----2------------------------------------2---------|
A|--0---------------------------------------0---------|
E|----------------------------------------------------|

Chorus

     Am       G     F
e|-0-0-0-0---3-3---1-1--------------------------------|
B|-1-1-1-1---0-0---1-1--------------------------------|
G|-2-2-2-2---0-0---2-2--------------------------------|
D|-2-2-2-2---0-0---3-3--------------------------------| x4
A|-0-0-0-0---2-2---3-3--------------------------------|
E|-----------3-3---1-1--------------------------------|

     Am

E|--------0-----------------|--------------------------|
B|-----------3-----1-----0--|--------------------------|
G|--------------------------|-----2-----0--------------|
D|-----2--------------------|--------------------------|
A|--0-----------------------|-----------------------0--|
E|--------------------------|-----------------0--3-----|

          Am                         G           F
E|--------0-----------------|--------2-----------1-----|
B|-----------3-----1--------|--------2-----------1-----|
G|--------------------------|--------0-----------2-----|
D|-----2--------------------|--------0-----------3-----|
A|--------------------------|--------2-----------3-----|
E|-----------------------0--|--3-----3-----1-----1-----|

Back to verse:
     Am

E|--0-----------------------|----------------------------|
B|--1-----------------------|----------------------------|
G|--2-----------------------|----------------------------|
D|--2-----------------------|----------------------------|
A|--0-----------------------|----------------------------|
E|--------------------------|----------------------------|

          So tell me why you've chosen me...

Interlude (where to solo would be in the electric versin)

|---0-------------------------------0--------------------------------|
|---1-------------------------------1--------------------------------|
|---2-------------------------------2--------------------------------|
|---2-------------------------------2--------------------------------|
|---0-------------------------------0--------------------------------|
|--------------------------------------------------------------------|

|----------------0---------------------0--------0-------0----------0-|
|-------------------3--1--0---------------3--1--1---------3--1--0--1-|
|------------------------------------------------------------------2-|
|----------------------------------2-------------------------------2-|
|--0--2--3-----------------------3--------------------2------------0-|
|---------------------------------------------------3----------------|

Bass Ending:
|----------------------------------|
|----------------------------------|
|----------------------------------|
|---0-5--7/8--7--0-5--2/3--1--5----|
Музыка, подобно дождю, капля за каплей, просачивается в сердце и оживляет его (Роллан)
Мы стремимся к созданию контента, соответствующего всем нормам законодательства и уважающего интеллектуальную собственность. Мы также придаем большое значение тому, чтобы не задеть никого и не оскорбить чьи-либо чувства. Если у вас есть вопросы или претензии по размещенному материалу, пожалуйста, сообщите нам об этом на указанный адрес электронной почты: [email protected].
Шрифт
-
0
+
Прокрутка
-
0
+
Стоп
Наверх