Аккорды Mischief Brew - Dirty Pennies

Добавлено: @romashka
Дата добавления: 03 Февраля 2024г.
Рейтинг:
0.0
Просмотров: 89
(Chord Guide)

   G  F#/G Em  C   D

e|-3---3---0-------2---|
B|-3---3---0---1---3---|
G|-0---0---0---0---2---|
D|-0---0---2---2---0---|
A|-2---0---2---3-------|
E|-3---2---0-----------|

[Intro]

e|-----------------------------------------------------------------3-3-3-3-3-3-3-3-0-0------|
B|-----------------------------------------------------------------3-3-3-3-3-3-3-3-0-0------|
G|-----0-------0-------0-------0-------0-------2-------0-------0---0-0-0-0-0-0-0-0-0-0------|
D|---0---0---0---0---0---0---0---0---0---0---0---0---0---0---0---0-0-0-0-0-0-0-0-0-2-2------|
A|-----------------------------------------------------------------2-2-2-2-0-0-0-0-2-2-0-2--|
E|-3-------2-------0-------2-------3-------2-------0-------2-------3-3-3-3-2-2-2-2-0-0------|

e|-------------------------2-2-2-2-3p2-2h3--------2-2-2-2-2-2-5-5-5-5-5-5--|
B|-----3-3---------3-3-----3-3-3-3-3---3----------3-3-3-3-3-3-3-3-3-3-3-3--|
G|-----0-0---------0-0-----2-2-2-2-2---2----(4x)--2-2-2-2-2-2-2-2-2-2-2-2--|
D|-----2-2---------2-2-----0-0-0-0-0---0----------0-0-0-0-0-0-0-0-0-0-0-0--|
A|--3-----3p2p0-------2p0--------------------------------------------------|
E|---------------3---------------------------------------------------------|

[Verse]

     G     F#/G                Em              C            G      D
In a small town where all knew all, wondered a peasant lady nobody knew,
        G    F#/G               Em               C           G        D
But her only friend was a young boy, brought her hot tea and leftover stew,
        G        F#/G      Em                C                G            D
In those burnin' wintry Decembers, he'd pick dirty pennies up off the cold street,
              G          F#/G          Em             D     C       D             G
And while his mother was out Christmas shopping, he'd say, "Come on in, warm your feet."

G, D, C, D - (2X)

   G           F#/G          Em              C            G          D
As long as you share with me stories, so she spoke on the product of war,
   G            F#/G         Em              C          G            D
My mother never knew who she could be, as my father lay drunk on the floor,
        G            F#/G          Em                        C          G               D
And she spoke of the cart that she wheeled, had keys with no locks, and guitars with no stings, 
      G                 F#/G      Em           D          C         D            G
and a puzzle that could never be finished, But this is my home, and these broken things are...

[Chorus]

e|-----------------------------------------2-2-2-2-2-2-2-2-2-2-2-2--|
B|---3-3-3---3-3-3---3-3-3---3-3-3---------3-3-3-3-3-3-3-3-3-3-3-3--|
G|---0-0-0---0-0-0---4-4-4---0-0-0---(7x)--2-2-2-2-2-2-2-2-2-2-2-2--|
D|---0-0-0---0-0-0---4-4-4---2-2-2---------0-0-0-0-0-0-0-0-0-0-0-0--|
A|-----------------2-------3----------------------------------------|
E|-3-------2--------------------------------------------------------|
   boy went on to be taught....
   But officer, I fondly remember you..

(Bridge)

     G      F#/G        Em           D        C         D               G
They buried something inside of you, Officer, Into your cold heart, dig deep
D          G      D
And you'll see 
          C       D
that it's me
              G   D                 C      D
And here I'll be,    nothing new to me
        G               F#/G      Em     C
I'll be heartbroken and cold, frozen and alone
   G            F#/G           Em          C
My coffin was a dumpster and I didn't even know
          G          F#/G            Em          C
But while out on the beat, he looked down to the street, 
       G           F#/G        Em        C
and he saw a dirty penny heads up at hid feet

[Outro]

e|-3-3-3-3-3-3-2-2-2-3p2-2h3-------------2-2-2-3p2-2h3----------------3---|
B|-3-3-3-3-3-3-3-3-3-3---3---1-1-1-1-1-1-3-3-3-3---3------------------3---|
G|-0-0-0-0-0-0-2-2-2-2---2---0-0-0-0-0-0-2-2-2-2---2----(2x)----------0---|
D|-0-0-0-0-0-0-0-0-0-0---0---2-2-2-2-2-2-0-0-0-0---0-------------0----0---|
A|-2-2-2-2-2-2---------------3-3-3-3-3-3---------------------0h2---2--2---|
E|-3-3-3-3-3-3--------------------------------------------------------3---|

************************************

| x   Dead note
| g   Grace note
| (n) Ghost note
| h   Hammer-on
| p   Pull-off
| r   Release
| >   Accented note
| t   Tapping
| b   Bend
| br  Bend release
| pb  Pre-bend
| pbr Pre-bend release
| /   Slide up
| \   Slide down
| ~   Vibrato
| s   Slap
| P   Pop
| PM  Palm mute
| TR  Trill
| N   Tremolo

************************************  
Но если и музыка нас оставит, что будет тогда с нашим миром? (Гоголь)
Мы стремимся к созданию контента, соответствующего всем нормам законодательства и уважающего интеллектуальную собственность. Мы также придаем большое значение тому, чтобы не задеть никого и не оскорбить чьи-либо чувства. Если у вас есть вопросы или претензии по размещенному материалу, пожалуйста, сообщите нам об этом.
Шрифт
-
0
+
Прокрутка
-
0
+
Стоп
Наверх