Аккорды Mischief Brew - The Barrel

Добавлено: @romashka
Дата добавления: 03 Февраля 2024г.
Рейтинг:
0.0
Просмотров: 70
e|-2-------------------------------------------------------------|
B|-3-----------------------------------------------------3-------|
G|-2---2---2h4p2-----2---2---2h4p2-----2-----------------4---2---|
D|-0-0---0-------4p0---0---0-------4p0-2---2h4p2-5-2h4-0-4-5-2-2-|
A|-------------------------------------0-0-------5-------2-5-0-2-|
E|-----------------------------------------------3---------3---0-|
                                                               [strumming]
e|-0-------------------2----------------------------------------2-3-2-|
B|-3-0-3---------------3-2p0-3----------------------------3-----3-3-3-|
G|-0---2-2---2h4p2-----2-----2-2h4p2-----2----------------4---2-2-2-2-|
D|-2---0---0-------4p0-0-----0-------4p0-2--2h4p2-5-2h4-0-4-5-2-0-0-0-|
A|-2-------------------------------------0-0------5-------2-5-0-------|
E|-0----------------------------------------------3---------3---------|

[Verse 1]

You really only need to be playing the D, G, B and e strings in the verses.

   D     G        D     G
My candy shop's a factory
     D       A       D
left in the woods to die
  D                  Bm
Beneath this settled dust
          D        A        D
a fertile field of treasure lies.
       Bm              G
We the scavengers are hunting
        Bm        G
for the beautiful decay,

[The little bass line at "we the scavengers...", ignore the G over "hunting" if using
this and just keep the Bm chord shape]

A|-2-----0-2-----|
E|---2-3-----2-3-|

[Chorus]
            D             G
towards the bottom of the barrel,
       D              A
at the market for the fleas,
      G                Bm
stale boxcars on their railroads
    G    A      Em
won over by the weeds.
         D                G
Raid the scrapyard like a garden,
      D               A
wring life from rusty bones.
   G               Bm
My candy shop is a vacant lot
      G   A        D
where anything may grow.
                                                           [Strumming]
e|-2-2-------------------------------------------------2-3-2-|
B|-3-3-------------------------------------------3-----3-3-3-|
G|-2-2-2h4p2-----2-2-2h4p2-----2-----------------4---2-2-2-2-|
D|-0-0-------4p0-0-0-------4p0-2---2h4p2-5-2h4-0-4-5-2-0-0-0-|
A|-----------------------------0-0-------5-------2-5-0-------|
E|---------------------------------------3---------3---------|

[Verse 2]

D       G           D         G
Weeping clowns with cracklin' brows
      D      A   D
piled in the old arcade.
        D                Bm
Now the children are all workers,
      D        A     D
still dreaming about play.
          Bm                       G
While the freaks stomp through the wasteland
        Bm               G
pulling flowers from the graves.

[Chorus]

            D             G
towards the bottom of the barrel,
       D              A
at the market for the fleas,
      G                Bm
stale boxcars on their railroads
    G    A      Em
won over by the weeds.
         D                G
Raid the scrapyard like a garden,
      D               A
wring life from rusty bones.
   G               Bm
My candy shop is a vacant lot
      G   A        D
where anything may grow.

A G

Bm  A  G  G

A  Em  A  Em

          [x2]                   [x2]
e|--------------333-----|-----------------|
B|--------------000-----|-----------------|
G|-4p2-4p2-4p2--000-2p0-|-----------------|
D|-4p2-4p2-4p2--000-----|-2h4p2p0-----2-2-| [Repeat this whole thing 4 times]
A|-2---2---2----222-----|-2-------4p0-2-2-|
E|------------3-333-----|-0-----------0-0-|

e|-2-------------------------------------------------------------|
B|-3-----------------------------------------------------3-------|
G|-2---2---2h4p2-----2---2---2h4p2-----2-----------------4---2---|
D|-0-0---0-------4p0---0---0-------4p0-2---2h4p2-5-2h4-0-4-5-2-2-|
A|-------------------------------------0-0-------5-------2-5-0-2-|
E|-----------------------------------------------3---------3---0-|
                                                               [strumming]
e|-0-------------------2----------------------------------------2-3-2-|
B|-3-0-3---------------3-2p0-3----------------------------3-----3-3-3-|
G|-0---2-2---2h4p2-----2-----2-2h4p2-----2----------------4---2-2-2-2-|
D|-2---0---0-------4p0-0-----0-------4p0-2--2h4p2-5-2h4-0-4-5-2-0-0-0-|
A|-2-------------------------------------0-0------5-------2-5-0-------|
E|-0----------------------------------------------3---------3---------|

[Verse 3]

       D           G
Like a vessel underwater,
    D                A
old mills and broken glass.
       G              Bm
Like a pick-up in the backyard,
     G       A           Em
tree winding through the cab.

e|-----------------|
B|---3-3---2--2--2-|
G|-----------------|
D|-2--2---2--2--2--|
A|-2--2---2--2--2--|
E|-0--0---0--0--0--|

     Bm                G
This takes me down the backroads,
         Bm             G
from the mansion to the shack.

[Chorus]

         D             G
From the bottom of the barrel,
       D                 A
here's something someone saved,
       G               Bm
and we bring it to the table,
       G          A     Em
wonder what we're gonna make.
     D             G
Your scrapyard, my garden,
   D             A
or so the saying goes.
         G          Bm
You turn water into dead things
         G        A           D
and I'll make the dead things grow
G        A           D
Make the dead things grow
G        A           Em
Make the dead things grow

e|-2-------------------------------------------------------------|
B|-3-----------------------------------------------------3-------|
G|-2---2---2h4p2-----2---2---2h4p2-----2-----------------4---2---|
D|-0-0---0-------4p0---0---0-------4p0-2---2h4p2-5-2h4-0-4-5-2-2-|
A|-------------------------------------0-0-------5-------2-5-0-2-|
E|-----------------------------------------------3---------3---0-|

e|-0-------------------2----------------------------------------2~-|
B|-3-0-3---------------3-2p0-3----------------------------3-----3~-|
G|-0---2-2---2h4p2-----2-----2-2h4p2-----2----------------4---2-2~-|
D|-2---0---0-------4p0-0-----0-------4p0-2--2h4p2-5-2h4-0-4-5-2-0~-|
A|-2-------------------------------------0-0------5-------2-5-0----|
E|-0----------------------------------------------3---------3------|
Музыка не только фактор облагораживающий, воспитательный. Музыка – целитель здоровья (Бехтерев)
Мы стремимся к созданию контента, соответствующего всем нормам законодательства и уважающего интеллектуальную собственность. Мы также придаем большое значение тому, чтобы не задеть никого и не оскорбить чьи-либо чувства. Если у вас есть вопросы или претензии по размещенному материалу, пожалуйста, сообщите нам об этом.
Шрифт
-
0
+
Прокрутка
-
0
+
Стоп
Наверх