Аккорды Моральный Кодекс - Я выбираю тебя

Добавлено: @romashka
Дата добавления: 15 Декабря 2020г.
Рейтинг:
0.0
Просмотров: 49
Транспонировать - +
E7                              
E|----------------------|
H|----------------------|
G|----------------------|
D|------------------0-2-|
A|-------------0-2------|
E|-0-0-3--0-4-----------| (x8)

E7                      
Я выбираю город,
Город выбирает меня
Я выбираю свой образ жизни,
Имя и паспортный стол

Проигрыш:
E7                              
E|----------------------|
H|----------------------|
G|----------------------|
D|------------------0-2-|
A|-------------0-2------|
E|-0-0-3--0-4-----------| (x4)

Я выбираю небо,
Небо выбирает меня
Я выбираю неон и воздух,
Зимний, московский двор

G  G   F#  F   E7  E7   E7  E7   (x2)

Я выбираю время,
Время выбирает меня
Я выбираю апрельский полдень,
Рваный рукав реки

Проигрыш:
E7                                
E|------------------------|
H|------------------------|
G|------------------------|
D|-2-2--1-1--0---0----0-1-|
A|-----------------2------|
E|------------------------| (x4)

Я выбираю мысли,
Мысли выбирают меня
Я выбираю всё то, что выбрал,
Чего мне ещё хотеть?

G  G   F#  F   E7  E7   E7  E7   (x2)

Припев:
A                     
Я выбираю тебя,
Я выбираю тебя
           E7                   
Мне глаза твои напротив
Говорят, что ты не против

Ты выбираешь меня,
Ты выбираешь меня,
Ты опять со мной играешь,
Выбираешь, выбираешь

G  G   F#  F   E7  E7   E7  E7   (x2)

A  A   A  A    E7  E7   E7  E7   (x2)

припев (x2)

G  G   F#  F   E7  E7   E7  E7   (x3)
E7
Наверх