Аккорды Мумий Тролль - Медведица

Добавлено: @romashka
Дата добавления: 03 Февраля 2020г.
Рейтинг:
0.0
Просмотров: 21
Транспонировать - +
Intro:
E|------------------------------------------------------
B|------------------------------------------------------
G|------------------------------------------------------
D|------------------------------------------------------
A|--/7--7-7-7-7--6--5--4--3-3-3-3-----------2-2-2-2--/7-
E|---------------------------------2-2-2-2--------------

E|-------------------------------------------------------------
B|-------------------------------------------------------------
G|-------------------------------------------------------------
D|-------------------------------------------------------------
A|---------2--2--------3--3--------4--4--------6--6--------6/2-
E|--0-0-0-------0-0-0-------0-0-0-------0-0-0-------0-0-0------

Chorus:
E|-------------------------------------------------------------------------
B|-------------------------------------------------------------------------
G|--------------------5-5-5-5--5-5-5-5--------------------4-4-4-4--4-4-4-4-
D|--2-2-2-2--2-2-2-2--5-5-5-5--5-5-5-5--5-5-5-5--5-5-5-5--4-4-4-4--4-4-4-4-
A|--2-2-2-2--2-2-2-2--3-3-3-3--3-3-3-3--5-5-5-5--5-5-5-5--2-2-2-2--2-2-2-2-
E|--0-0-0-0--0-0-0-0--------------------3-3-3-3--3-3-3-3-------------------

Chords: Em C G B

comments powered by Disqus
Наверх