Аккорды Nautilus Pompilius - Я хочу быть с тобой

Добавлено: @romashka
Дата добавления: 22 Мая 2019г.
Рейтинг:
0.0
Просмотров: 17
Транспонировать - +
Intro:
1|----0--7--5-----0-5-7--5----0--7--5-------5-4--5--0--7--5-7-8-7-5-4--1-0-1-0-----------|
2|-------------1------------3----------1-3--------------------------------------3-1-0----|
3|-2-----------------------------------------------------------------------------------4-|

    Am    G          C G 
Я пытался уйти от любви,
       C          G    F      E
Я брал острую бритву и правил себя,
    Am         G      C   G
Я укрылся в подвале я резал
C     G     F            E
Кожаные ремни, стянувшие слабую грудь.

C G             C G
Я хочу быть с тобой,
C E             Am G
Я хочу быть с тобой,
  C   G             C  G
Я так хочу быть с тобой,
C E             F
Я хочу быть с тобой,
             E
И я буду с тобой.

1|-8------8-7-----7-5-----5-4-----4-1--0--3--9--|
2|-----10-------8-------6-------5---------------| x2
3|---9--------7-------5-------4-----------------|

     Am  G              Am
Твоё имя давно стало другим,
C           G      F         E
Глаза навсегда потеряли свой цвет,
       Am          G               Am
Пьяный врач мне сказал тебя больше нет,
  C                G
Пожарный выдал мне справку,
    F        E
Что дом твой сгорел.

C G             C G
Я хочу быть с тобой,
C E             Am G
Я хочу быть с тобой,
  C   G             C  G
Я так хочу быть с тобой,
C E             F
Я хочу быть с тобой,
             E
И я буду с тобой.

Am        G(III)       F
В комнате с белым потолком,
E                Am + 6|-3-4-|
С правом на надежду,
Am        G(III)       F
В комнате с видом на огни,
E             Am + 6|-3-4-|
С верою в любовь.

    Am     G                   Am
Я ломал стекло как шоколад в руке,
    C       G         F      E
Я резал эти пальцы за то что они
F                         E
Не могут прикоснуться к тебе,
    Am     G                   Am
Я смотрел в эти лица и не мог им простить,
   C     G      F    E
Того что у них нет тебя,
F            E
И они могут жить.

C G             C G
Я хочу быть с тобой,
C E             Am G
Я хочу быть с тобой,
  C   G             C  G
Я так хочу быть с тобой,
C E             F
Я хочу быть с тобой,
             E
И я буду с тобой.

Проигрыш:
1|-8------8-7-----7-5-----5-4-----4-1--0--3--9--|
2|-----10-------8-------6-------5---------------| x2
3|---9--------7-------5-------4-----------------|

В первом куплете,припеве, а так же в проигрыше играется перебором: бас-3-2-3(можно так же задеть и 1 струну вместе со второй)
comments powered by Disqus
Наверх