Аккорды НедРа - Романс

Добавлено: @romashka
Дата добавления: 03 Апреля 2022г.
Рейтинг:
0.0
Просмотров: 27
Транспонировать - +
[Вступление]: 

1   ---------------------5---3------6---5------------------------------------------------------------------- 
2   -------------------4---------4----------4---3---------1---------------3-------3-------1--------------- 
3   -----------------5--------------------------------------2----3----2--------3-----------2---3---2------  
4   ---------------0----------------------------------------0-------------------------------0--------------5  
5   --3---5---6---------------------------------------------------------------------------------------------- 
6   --------------------------------------------3--------------------------3--------------------------------3   

Басы (c, d, eb)  Cm    Cm/A  Gm 
Помнишь, как мы провожали закат 
Cm        B   Eb 
Небо в глазах красным околышем 
Cm      Cm/A     F        Gm 
И как хотелось той ночью сверкать 
D7    Gm  D7     Gm 
И говорить, и говорить… 

Помнишь, как мы провожали друзей  
Как были все рюмки разбитыми 
И фонарями моргали звезде 
D7    Gm  D7     Gm (басы b, a, g) 
Над мостовой, над мостовой… 

Как получилось так, что мы одни 
Тихо сидим, шуршим одеждою 
Падает снег на ладони твои 
И никого нет, ничего нет… 

[Концовка]: 

1    --------------------------------------------------------------------------------------------- 
2    ----------------10---8-------11---10---------------------------10---8------------10---8 
3    ---5---7---8-------------8--------------8---7----------8---7-------------8---7----------  
4    ---------------------------------------------------------------------------------------------  
5   ---------------------------------------------------------------------------------------------- 
6   ---------------------------------------------------------------------------------------------- 

1   -----------------------------------------------8------------------------------------------------- 
2    ----------------8---10---8-------11---10-------11------------------10---8----------------- 
3    ---5---7---8-----------------8-------------------------------8---7-------------8---7-------- 
4    -------------------------------------------------------------------------------------------8---5 
5   -------------------------------------------------------------------------------------------------- 
6   -------------------------------------------------------------------------------------------------3 

Cm/A    x05543 
Наверх