Аккорды Nightwish - Passion and the Opera

Добавлено: @romashka
Дата добавления: 07 Марта 2024г.
Рейтинг:
0.0
Просмотров: 56
Транспонировать - +
[G----------------------------------------------------------
D----------------------------------------------------------
A----------------------------------------------------------
E------------------------------------------2-2-----2-2-----
 
-----------------------------------------------------------------------------
-----------------------------------------------------------------------------
----------------0-------2---------------------------0------------------0-----
------2-2---------------------0-2--0-2--0-2--0-2----------0-2--0-2--0--------

-------------------------------------------------------
-------------------------------------------------------
--2---------------------------0------------------0-----
--------0-2--0-2--0-2--0-2----------0-2--0-2--0--------

-------------------------------------------------------
-------------------------------------------------------
--2---------------------------0------------------0-----
--------0-2--0-2--0-2--0-2----------0-2--0-2--0--------

-------------------------------------------------------
-------------------------------------------------------
--2---------------------------0------------------0-----
--------0-2--0-2--0-2--0-2----------0-2--0-2--0--------

-------------------------------------------------------
-------------------------------------------------------
--2----------------------------------------------------
--------2-2-2----2-2-2--2----2-2-2--2-2-2----2-2-2--2--

--------------------------------------------------------
---------0-0-0----0-0-0--0----0-0-0---------------------
-------------------------------------4-4-4----4-4-4--4--
--2-2-2-------------------------------------------------

-------------------------------------------------------
-------------------------------------------------------
-------------------------------------------------------
--0-----2-2-2----2-2-2--2----2-2-2--2-2-2----2-2-2--2--

--------------------------------------------------------
---------0-0-0----0-0-0--0----0-0-0---------------------
-------------------------------------4-4-4----4-4-4--4--
--2-2-2-------------------------------------------------

-------------------------------------------------------
-------------------------------------------------------
-------------------------------------------------------
--0-----2-2-2----2-2-2--2----2-2-2--2-2-2----2-2-2--2--

--------------------------------------------------------
---------0-0-0----0-0-0--0----0-0-0---------------------
-------------------------------------4-4-4----4-4-4--4--
--2-2-2-------------------------------------------------

-------------------------------------------------------
-------------------------------------------------------
-------------------------------------------------------
--0-----2-2-2----2-2-2--2----2-2-2--2-2-2----2-2-2--2--

--------------------------------------------------------
---------0-0-0----0-0-0--0----0-0-0---------------------
-------------------------------------4-4-4----4-4-4--4--
--2-2-2-------------------------------------------------

------------------------------------------------------
------------------------------------------------------
------------------------------------------------------
--0-----2-2-2----2-2-2-2-2--------2-2-2----2-2-2-2-2--

----------------------------------------------------
------0-0-0----0-0-0-0-0----------------------------
--------------------------------0-0-0----0-0-0-0-0--
----------------------------------------------------

----------------------------------------------------
----------------------------------------------------
----------------------------------------------------
------2-2-2----2-2-2-2-2--------2-2-2----2-2-2-2-2--

-----------------------------------------------------------------------------
------0-0-0----0-0-0-0-0-----------------------------------------------------
--------------------------------0-0-0----0-0-0-0-0---------------------------
----------------------------------------------------------2-2-2----2-2-2--2--

--------------------------------------------------------
-------------------------------------0-0-0----0-0-0--0--
--------------------------------------------------------
--2-2-2--2-2-2----2-2-2--2----2-2-2---------------------

-------------------------------------------------------
--0-0-0------------------------------------------------
---------4-4-4----4-4-4--4-----------------------------
------------------------------0-----2-2-2----2-2-2--2--

--------------------------------------------------------
-------------------------------------0-0-0----0-0-0--0--
--------------------------------------------------------
--2-2-2--2-2-2----2-2-2--2----2-2-2---------------------

-------------------------------------------------------
--0-0-0------------------------------------------------
---------4-4-4----4-4-4--4-----------------------------
------------------------------0-----2-2-2----2-2-2--2--

--------------------------------------------------------
-------------------------------------0-0-0----0-0-0--0--
--------------------------------------------------------
--2-2-2--2-2-2----2-2-2--2----2-2-2---------------------

-------------------------------------------------------
--0-0-0------------------------------------------------
---------4-4-4----4-4-4--4-----------------------------
------------------------------0-----2-2-2----2-2-2--2--

--------------------------------------------------------
-------------------------------------0-0-0----0-0-0--0--
--------------------------------------------------------
--2-2-2--2-2-2----2-2-2--2----2-2-2---------------------

--------------------------------------------------------
--0-0-0-------------------------------------------------
---------4-4-4----4-4-4--4------------------------------
------------------------------0-----2-2-2----2-2-2-2-2--

----------------------------------------------------
--------------------------------0-0-0----0-0-0-0-0--
----------------------------------------------------
------2-2-2----2-2-2-2-2----------------------------

----------------------------------------------------
----------------------------------------------------
------0-0-0----0-0-0-0-0----------------------------
--------------------------------2-2-2----2-2-2-2-2--

----------------------------------------------------
--------------------------------0-0-0----0-0-0-0-0--
----------------------------------------------------
------2-2-2----2-2-2-2-2----------------------------

----------------------------------------------------
----------------------------------------------------
------0-0-0----0-0-0-0-0----------------------------
--------------------------------0-2--0-2--0-2--0-2--

-------------------------------------------------------
-------------------------------------------------------
--0------------------0-------2-------------------------
--------0-2--0-2--0----------------0-2--0-2--0-2--0-2--

-------------------------------------------------------
-------------------------------------------------------
--0------------------0-------2-------------------------
--------0-2--0-2--0----------------2-4--2-4--0-4--0-4--

-------------------------------------------------------
-------------------------------------------------------
--2------------------2-------4-------------------------
--------2-4--2-4--0----------------2-4--2-4--0-4--0-4--

-------------------------------------------------------
-------------------------------------------------------
--2------------------2-------4-------------------------
--------2-4--2-4--0----------------2-4--2-4--0-4--0-4--

-------------------------------------------------------
-------------------------------------------------------
--2------------------2-------4-------------------------
--------2-4--2-4--0----------------2-4--2-4--0-4--0-4--

------------------------------------------------------
------------------------------------------------------
--2------------------2-------4------------------------
--------2-4--2-4--0----------------0-0-0----0-0-0--0--

--------------------------------------------------------
--------------------------------------------------------
--------------------------------------------------------
--0-0-0--0-0-0----0-0-0--0----0-0-0--0-0-0----0-0-0--0--

--------------------------------------------------------
--------------------------------------------------------
--------------------------------------------------------
--0-0-0--0-0-0----0-0-0--0----0-0-0--0-0-0----0-0-0--0--

--------------------------------------------------------
--------------------------------------------------------
-------------------------------------0-0-0----0-0-0--0--
--0-0-0--0-0-0----0-0-0--0----0-0-0---------------------

--------------------------------------------------------
--------------------------------------------------------
--0-0-0--0-0-0----0-0-0--0----0-0-0---------------------
-------------------------------------0-0-0----0-0-0--0--

--------------------------------------------------------
--------------------------------------------------------
-------------------------------------4-4-4----4-4-4--4--
--0-0-0--0-0-0----0-0-0--0----0-0-0---------------------

--------------------------------------------------------
--------------------------------------------------------
--4-4-4--4-4-4----4-4-4--4----4-4-4--0-0-0----0-0-0--0--
--------------------------------------------------------

--------------------------------------------------------
--------------------------------------------------------
--0-0-0--0-0-0----0-0-0--0----0-0-0--4-4-4----4-4-4--4--
--------------------------------------------------------

-----------------------------------------------------------------------
-------------------------------------0---------------------------------
--4-4-4--4-4-4----4-4-4--4----4-4-4------------------------------------
--------------------------------------------0--------2-----------------

------------------------------------------------------------------------
------------------------------------------------------------------------
------------------------------------------------------------------------
------------------------------------------------------------------------

-----------------------------------------------------
-----------------------------------------------------
-----------------------------------------------------
------0-0-0----0-0-0--0----0-0-0--0-0-0----0-0-0--0--

--------------------------------------------------------
--------------------------------------------------------
--------------------------------------------------------
--0-0-0--0-0-0----0-0-0--0----0-0-0--0-0-0----0-0-0--0--

--------------------------------------------------------
--------------------------------------------------------
---------0-0-0----0-0-0--0----0-0-0--0-0-0----0-0-0--0--
--0-0-0-------------------------------------------------

--------------------------------------------------------
--------------------------------------------------------
--0-0-0-------------------------------------------------
---------0-0-0----0-0-0--0----0-0-0--0-0-0----0-0-0--0--

------------------------------------------------------------
------------------------------------------------------------
---------4--4-4-4--4-4-4--4-4---4--4-4-4--4-4-4--4-4-4--4-4-
--0-0-0-----------------------------------------------------

------------------------------------------------------------
------------------------------------------------------------
--4--4-4-0--0-0-0--0-0-0--0-0---0--0-0-0--0-0-0--0-0-0--0-0-
------------------------------------------------------------

------------------------------------------------------------
------------------------------------------------------------
--0--0-0-4--4-4-4--4-4-4--4-4---4--4-4-4--4-4-4--4-4-4--4-4-
------------------------------------------------------------

-------------------------------------------------------------
---------0---------------------------------------------------
--4--4-4-----------------------------------------------------
----------------0--------2-----------------------------------

----------------------------------------------------------------
----------------------------------------------------------------
----------------------------------------------------------------
------------------------0-0-0----0-0-0--0----0-0-0--------------

-----------------------------------------------------
-----------------------------------------------------
-----------------------------------------------------
------0-0-0----0-0-0--0----0-0-0--0-0-0----0-0-0--0--

--------------------------------------------------------
--------------------------------------------------------
--------------------------------------------------------
--0-0-0--0-0-0----0-0-0--0----0-0-0--0-0-0----0-0-0--0--

--------------------------------------------------------
--------------------------------------------------------
---------4-4-4----4-4-4--4----4-4-4--4-4-4----4-4-4--4--
--0-0-0-------------------------------------------------

--------------------------------------------------------
--------------------------------------------------------
--4-4-4--0-0-0----0-0-0--0----0-0-0--0-0-0----0-0-0--0--
--------------------------------------------------------

--------------------------------------------------------
--------------------------------------------------------
--0-0-0--4-4-4----4-4-4--4----4-4-4--4-4-4----4-4-4--4--
--------------------------------------------------------

--------------------------------------------------------
--------------------------------------------------------
--4-4-4--0-0-0----0-0-0--0----0-0-0--0-0-0----0-0-0--0--
--------------------------------------------------------

----------------------------------------------------------------------------
----------------------------------------------------------------------------
--0-0-0---------------------------------------------------------------------
---------0------------------------------------------------------------------

--------------------------------------------------------------------------
--------------------------------------------------------------------------
------4------------------------------------0------------------------------
--------------------------------------------------------------------------

--------------------------------------------------------------------------
--------------------------------------------------------------------------
------4------------------------------------0------------------------------
--------------------------------------------------------------------------

-------------------------------------------------------------------------
-------------------------------------------------------------------------
-------------------------------------------------------------------------
------0------------------------------------------------------------------

--------------------------------------------------------------------------
--------------------------------------------------------------------------
------4------------------------------------0------------------------------
--------------------------------------------------------------------------

--------------------------------------------------------------------------
--------------------------------------------------------------------------
------4------------------------------------0------------------------------
--------------------------------------------------------------------------

-------------------------------------------------------------------------
-------------------------------------------------------------------------
-------------------------------------------------------------------------
------0------------------------------------------------------------------

------------------
------------------
------------------
------------------]

-

[E------------------------------------------------------
B------------------------------------------------------
G------------------------------------------------------
D------------------------------------------------------
A------------------------------------------------------
E------------------------------------------------------

----------------------------------------------------
----------------------------------------------------
----------------------------------------------------
----------------------4-----------------------------
--------------7-------2-----------------------------
--------------5-------------0-2-2-2-2-2-2-2-2-2-2-2-

--------------------------------------------------------------
--------------------------------------------------------------
--------------------------------------------------------------
--2---------------------2-------4-----------------------------
--0---------------------0-------2-----------------------------
--------0-2-2-2-2-2-2-2---------------0-2-2-2-2-2-2-2-2-2-2-2-

--------------------------------------------------------------
--------------------------------------------------------------
--------------------------------------------------------------
--2---------------------2-------4-----------------------------
--0---------------------0-------2-----------------------------
--------0-2-2-2-2-2-2-2---------------0-2-2-2-2-2-2-2-2-2-2-2-

--------------------------------------------------------------
--------------------------------------------------------------
--------------------------------------------------------------
--2---------------------2-------4-----------------------------
--0---------------------0-------2-----------------------------
--------0-2-2-2-2-2-2-2---------------0-2-2-2-2-2-2-2-2-2-2-2-

---------------------------------------------------------
---------------------------------------------------------
---------------------------------------------------------
--2---------------------2-------4------------------------
--0---------------------0-------2-----4-4-4----4-4-4--4--
--------0-2-2-2-2-2-2-2---------------2-2-2----2-2-2--2--

--------------------------------------------------------
--------------------------------------------------------
-------------------------------------2-2-2----2-2-2--2--
-------------------------------------0-0-0----0-0-0--0--
--4-4-4--4-4-4----4-4-4--4----4-4-4---------------------
--2-2-2--2-2-2----2-2-2--2----2-2-2---------------------

-------------------------------------------------------
-------------------------------------------------------
--2-2-2------------------------------------------------
--0-0-0--6-6-6----6-6-6--6----2------------------------
---------4-4-4----4-4-4--4----2-----4-4-4----4-4-4--4--
------------------------------0-----2-2-2----2-2-2--2--

--------------------------------------------------------
--------------------------------------------------------
-------------------------------------2-2-2----2-2-2--2--
-------------------------------------0-0-0----0-0-0--0--
--4-4-4--4-4-4----4-4-4--4----4-4-4---------------------
--2-2-2--2-2-2----2-2-2--2----2-2-2---------------------

-------------------------------------------------------
-------------------------------------------------------
--2-2-2------------------------------------------------
--0-0-0--6-6-6----6-6-6--6----2------------------------
---------4-4-4----4-4-4--4----2-----4-4-4----4-4-4--4--
------------------------------0-----2-2-2----2-2-2--2--

--------------------------------------------------------
--------------------------------------------------------
-------------------------------------2-2-2----2-2-2--2--
-------------------------------------0-0-0----0-0-0--0--
--4-4-4--4-4-4----4-4-4--4----4-4-4---------------------
--2-2-2--2-2-2----2-2-2--2----2-2-2---------------------

-------------------------------------------------------
-------------------------------------------------------
--2-2-2------------------------------------------------
--0-0-0--6-6-6----6-6-6--6----2------------------------
---------4-4-4----4-4-4--4----2-----4-4-4----4-4-4--4--
------------------------------0-----2-2-2----2-2-2--2--

--------------------------------------------------------
--------------------------------------------------------
-------------------------------------2-2-2----2-2-2--2--
-------------------------------------0-0-0----0-0-0--0--
--4-4-4--4-4-4----4-4-4--4----4-4-4---------------------
--2-2-2--2-2-2----2-2-2--2----2-2-2---------------------

------------------------------------------------------------------
------------------------------------------------------------------
--2-2-2-----------------------------------------------------------
--0-0-0--6-6-6----6-6-6--6----2-----------------------------------
---------4-4-4----4-4-4--4----2-----------------------------------
------------------------------0-----------------------------------

----------------------2-4-5------4-2-0----------5------------
-------------------------------------------------------------
-------------------------------------------------------------
-------------------------------------------------------------
-------------------------------------------------------------
-------------------------------------------------------------

----------------------------------------5-7-9------7-5-4----
------------------------------------------------------------
------------------------------------------------------------
------------------------------------------------------------
------------------------------------------------------------
------------------------------------------------------------

-----------------------------------------------------
-----------------------------------------------------
-----------------------------------------------------
-----------------------------------------------------
------4-4-4----4-4-4--4----4-4-4--4-4-4----4-4-4--4--
------2-2-2----2-2-2--2----2-2-2--2-2-2----2-2-2--2--

--------------------------------------------------------
--------------------------------------------------------
---------2-2-2----2-2-2--2----2-2-2---------------------
---------0-0-0----0-0-0--0----0-0-0--6-6-6----6-6-6--6--
--4-4-4------------------------------4-4-4----4-4-4--4--
--2-2-2-------------------------------------------------

-------------------------------------------------------
-------------------------------------------------------
-------------------------------------------------------
--2----------------------------------------------------
--2-----4-4-4----4-4-4--4----4-4-4--4-4-4----4-4-4--4--
--0-----2-2-2----2-2-2--2----2-2-2--2-2-2----2-2-2--2--

--------------------------------------------------------
--------------------------------------------------------
---------2-2-2----2-2-2--2----2-2-2---------------------
---------0-0-0----0-0-0--0----0-0-0--6-6-6----6-6-6--6--
--4-4-4------------------------------4-4-4----4-4-4--4--
--2-2-2-------------------------------------------------

-------------------------------------------------------
-------------------------------------------------------
-------------------------------------------------------
--2----------------------------------------------------
--2-----4-4-4----4-4-4--4----4-4-4--4-4-4----4-4-4--4--
--0-----2-2-2----2-2-2--2----2-2-2--2-2-2----2-2-2--2--

--------------------------------------------------------
--------------------------------------------------------
---------2-2-2----2-2-2--2----2-2-2---------------------
---------0-0-0----0-0-0--0----0-0-0--6-6-6----6-6-6--6--
--4-4-4------------------------------4-4-4----4-4-4--4--
--2-2-2-------------------------------------------------

-------------------------------------------------------
-------------------------------------------------------
-------------------------------------------------------
--2----------------------------------------------------
--2-----4-4-4----4-4-4--4----4-4-4--4-4-4----4-4-4--4--
--0-----2-2-2----2-2-2--2----2-2-2--2-2-2----2-2-2--2--

----------------------------------------------------------------------------
----------------------------------------------------------------------------
---------2-2-2----2-2-2--2----2-2-2-----------------------------------------
---------0-0-0----0-0-0--0----0-0-0--6-6-6----6-6-6--6----2-----------------
--4-4-4------------------------------4-4-4----4-4-4--4----2-----------------
--2-2-2---------------------------------------------------0-----------------

----------------------------------------2-4-5------4-2-0----
------------------------------------------------------------
------------------------------------------------------------
------------------------------------------------------------
------------------------------------------------------------
------------------------------------------------------------

------5------------------------------------------------
-------------------------------------------------------
-------------------------------------------------------
-------------------------------------------------------
-------------------------------------------------------
-------------------------------------------------------

----5-7-9------7-5-4-------------------------------
---------------------------------------------------
---------------------------------------------------
---------------------------------------------------
------------------------------2--4--2-4--2-4--2-4--
------------------------------0--2--0-2--0-2--0-2--

---------------------------------------------------------
---------------------------------------------------------
---------------------------------------------------------
--2-------------------2-------4--------------------------
--0-----2--4--2-4--2--0-------2-----2--4--2-4--2-4--2-4--
--------0--2--0-2--0----------------0--2--0-2--0-2--0-2--

----------------------------------------------------------------------
----------------------------------------------------------------------
----------------------------------------------------------------------
--2-------------------2-------4-------------------4-------------4-----
--0-----2--4--2-4--2--0-------2-------------------2-------------2-----
--------0--2--0-2--0--------------------------------------------------

------------------------------------------------------------
------------------------------------------------------------
------------------------------------------------------------
--6-------------------4-------------------6-----------------
--4-------------------2-------------------4-----------------
------------------------------------------------------------

--------------------------------------------------------------
--------------------------------------------------------------
--------------------------------------------------------------
--4-------------------6-------------------4-------------4-----
--2-------------------4-------------------2-------------2-----
--------------------------------------------------------------

------------------------------------------------------
------------------------------------------------------
------------------------------------------------------
--6---------------------------------------------------
--4---------------------------------------------------
-------0-0-0----0-0-0--0----0-0-0--0-0-0----0-0-0--0--

--------------------------------------------------------
--------------------------------------------------------
--------------------------------------------------------
--------------------------------------------------------
--------------------------------------------------------
--0-0-0--0-0-0----0-0-0--0----0-0-0--0-0-0----0-0-0--0--

--------------------------------------------------------
--------------------------------------------------------
--------------------------------------------------------
--------------------------------------------------------
--------------------------------------------------------
--0-0-0--0-0-0----0-0-0--0----0-0-0--0-0-0----0-0-0--0--

--------------------------------------------------------
--------------------------------------------------------
--------------------------------------------------------
--------------------------------------------------------
---------0-0-0----0-0-0--0----0-0-0--0-0-0----0-0-0--0--
--0-0-0-------------------------------------------------

--------------------------------------------------------
--------------------------------------------------------
--------------------------------------------------------
--------------------------------------------------------
--0-0-0-------------------------------------------------
---------0-0-0----0-0-0--0----0-0-0--0-0-0----0-0-0--0--

--------------------------------------------------------
--------------------------------------------------------
--------------------------------------------------------
--------------------------------------------------------
---------4-4-4----4-4-4--4----4-4-4--4-4-4----4-4-4--4--
--0-0-0-------------------------------------------------

--------------------------------------------------------
--------------------------------------------------------
--------------------------------------------------------
--------------------------------------------------------
--4-4-4--0-0-0----0-0-0--0----0-0-0--0-0-0----0-0-0--0--
--------------------------------------------------------

--------------------------------------------------------
--------------------------------------------------------
--------------------------------------------------------
--------------------------------------------------------
--0-0-0--4-4-4----4-4-4--4----4-4-4--4-4-4----4-4-4--4--
--------------------------------------------------------

--------------------------------------------------------------------
--------------------------------------------------------------------
--------------------------------------------------------------------
---------0----------------------------------------------------------
--4-4-4-------------------------------------------------------------
----------------0--------2-----------------------0-0-0----0-0-0--0--

--------------------------------------------------------
--------------------------------------------------------
--------------------------------------------------------
--------------------------------------------------------
--------------------------------------------------------
--0-0-0--0-0-0----0-0-0--0----0-0-0--0-0-0----0-0-0--0--

-----------------------------------------------------
-----------------------------------------------------
-----------------------------------------------------
-----------------------------------------------------
----------------------------------2-2-2----2-2-2--2--
--0-0-0--0-0-0----0-0-0--0--------0-0-0----0-0-0--0--

--------------------------------------------------------
--------------------------------------------------------
--------------------------------------------------------
--------------------------------------------------------
--2-2-2--2-2-2----2-2-2--2----2-2-2--2-2-2----2-2-2--2--
--0-0-0--0-0-0----0-0-0--0----0-0-0--0-0-0----0-0-0--0--

--------------------------------------------------------
--------------------------------------------------------
--------------------------------------------------------
-------------------------------------2-2-2----2-2-2--2--
--2-2-2--2-2-2----2-2-2--2----2-2-2--0-0-0----0-0-0--0--
--0-0-0--0-0-0----0-0-0--0----0-0-0---------------------

--------------------------------------------------------
--------------------------------------------------------
--------------------------------------------------------
--2-2-2--2-2-2----2-2-2--2----2-2-2---------------------
--0-0-0--0-0-0----0-0-0--0----0-0-0--2-2-2----2-2-2--2--
-------------------------------------0-0-0----0-0-0--0--

----------------------------------------------------------
----------------------------------------------------------
----------------------------------------------------------
-------------------------------------6------6------6------
--2-2-2--2-2-2----2-2-2--2----2-2-2--4--4-4-4--4-4-4--4-4-
--0-0-0--0-0-0----0-0-0--0----0-0-0-----------------------

----------------------------------------------------------
----------------------------------------------------------
----------------------------------------------------------
--6------6------6------6-------4-----2------2------2------
--4--4-4-4--4-4-4--4-4-4--4----2-----0--0-0-0--0-0-0--0-0-
----------------------------------------------------------

----------------------------------------------------------
----------------------------------------------------------
----------------------------------------------------------
--2------2------2------2-------2--4--6------6------6------
--0--0-0-0--0-0-0--0-0-0--0----0--2--4--4-4-4--4-4-4--4-4-
----------------------------------------------------------

----------------------------------------------------------------------
-----------------------------------------------------2----------------
-------------------------------------2--------------------------------
--6------6------6------6-------4-----0------2--------4----------------
--4--4-4-4--4-4-4--4-4-4--4----2------------2-------------------------
--------------------------------------------0-------------------------

------------------------------------------------------------------------
------------------------------------------------------------------------
------------------------------------------------------------------------
------------------------------------------------------------------------
------------------------------------------------------------------------
------------------------------------------------------------------------

-----------------------------------------------------
-----------------------------------------------------
-----------------------------------------------------
-----------------------------------------------------
------2-2-2----2-2-2--2----2-2-2--2-2-2----2-2-2--2--
------0-0-0----0-0-0--0----0-0-0--0-0-0----0-0-0--0--

--------------------------------------------------------
--------------------------------------------------------
--------------------------------------------------------
--------------------------------------------------------
--2-2-2--2-2-2----2-2-2--2----2-2-2--2-2-2----2-2-2--2--
--0-0-0--0-0-0----0-0-0--0----0-0-0--0-0-0----0-0-0--0--

--------------------------------------------------------
--------------------------------------------------------
--------------------------------------------------------
---------6-6-6----6-6-6--6----6-6-6--6-6-6----6-6-6--6--
--2-2-2--4-4-4----4-4-4--4----4-4-4--4-4-4----4-4-4--4--
--0-0-0-------------------------------------------------

--------------------------------------------------------
--------------------------------------------------------
--------------------------------------------------------
--6-6-6--2-2-2----2-2-2--2----2-2-2--2-2-2----2-2-2--2--
--4-4-4--0-0-0----0-0-0--0----0-0-0--0-0-0----0-0-0--0--
--------------------------------------------------------

--------------------------------------------------------
--------------------------------------------------------
--------------------------------------------------------
--2-2-2--6-6-6----6-6-6--6----6-6-6--6-6-6----6-6-6--6--
--0-0-0--4-4-4----4-4-4--4----4-4-4--4-4-4----4-4-4--4--
--------------------------------------------------------

--------------------------------------------------------
--------------------------------------------------------
--------------------------------------------------------
--6-6-6--2-2-2----2-2-2--2----2-2-2--2-2-2----2-2-2--2--
--4-4-4--0-0-0----0-0-0--0----0-0-0--0-0-0----0-0-0--0--
--------------------------------------------------------

----------------------------------------------------------------------------
----------------------------------------------------------------------------
----------------------------------------------------------------------------
--2-2-2---------------------------------------------------------------------
--0-0-0--2------------------------------------------------------------------
---------0------------------------------------------------------------------

--------------------------------------------------------------------------
--------------------------------------------------------------------------
--------------------------------------------------------------------------
------6------------------------------------2------------------------------
------4------------------------------------0------------------------------
--------------------------------------------------------------------------

--------------------------------------------------------------------------
--------------------------------------------------------------------------
--------------------------------------------------------------------------
------6------------------------------------2------------------------------
------4------------------------------------0------------------------------
--------------------------------------------------------------------------

-------------------------------------------------------------------------
-------------------------------------------------------------------------
-------------------------------------------------------------------------
-------------------------------------------------------------------------
------2------------------------------------------------------------------
------0------------------------------------------------------------------

--------------------------------------------------------------------------
--------------------------------------------------------------------------
--------------------------------------------------------------------------
------6------------------------------------2------------------------------
------4------------------------------------0------------------------------
--------------------------------------------------------------------------

--------------------------------------------------------------------------
--------------------------------------------------------------------------
--------------------------------------------------------------------------
------6------------------------------------2------------------------------
------4------------------------------------0------------------------------
--------------------------------------------------------------------------

-------------------------------------------------------------------------
-------------------------------------------------------------------------
-------------------------------------------------------------------------
-------------------------------------------------------------------------
------2------------------------------------------------------------------
------0------------------------------------------------------------------

------------------
------------------
------------------
------------------
------------------
------------------]

-

[E-----------------------------------------------------------------
B--0--------------------------0-----------------------------------
G-------------------------1-2-----2-1-----------------------------
D--------2-4-4-4-4-4-2-4--------------4-2-2-4-4-4-4-4-2-4-2-------
A-----------------------------------------------------------4-3-2-
E-----------------------------------------------------------------

-----------------------------------------------------------------
-----------------------------0---------------------------------0-
-------------------------1-2-----2-1---------------------2-------
--------2-4-4-4-4-4-2-4--------------4-2-2-4-4-4-4-4-2-4---4-2---
--0--------------------------------------------------------------
-----------------------------------------------------------------

-----------------------------------------------------------------
-----------------------------0-----------------------------------
---2-1-------------------1-2-----2-1-----------------------------
--------2-4-4-4-4-4-2-4--------------4-2-2-4-4-4-4-4-2-4-2-------
-----------------------------------------------------------4-3-2-
-----------------------------------------------------------------

-----------------------------------------------------------------
-----------------------------0---------------------------------0-
-------------------------1-2-----2-1---------------------2-------
--------2-4-4-4-4-4-2-4--------------4-2-2-4-4-4-4-4-2-4---4-2---
--0--------------------------------------------------------------
-----------------------------------------------------------------

-----------------------------------------------------------------
-----------------------------0-----------------------------------
---2-1-------------------1-2-----2-1-----------------------------
--------2-4-4-4-4-4-2-4--------------4-2-2-4-4-4-4-4-2-4-2-------
-----------------------------------------------------------4-3-2-
-----------------------------------------------------------------

-----------------------------------------------------------------
-----------------------------0---------------------------------0-
-------------------------1-2-----2-1---------------------2-------
--------2-4-4-4-4-4-2-4--------------4-2-2-4-4-4-4-4-2-4---4-2---
--0--------------------------------------------------------------
-----------------------------------------------------------------

-------------------------------------------------------
-------------------------------------------------------
---2-1-------------------------------------------------
-------------------------------------------------------
--------4-4-4----4-4-4--4----4-4-4--4-4-4----4-4-4--4--
--------2-2-2----2-2-2--2----2-2-2--2-2-2----2-2-2--2--

--------------------------------------------------------
--------------------------------------------------------
---------2-2-2----2-2-2--2----2-2-2---------------------
---------0-0-0----0-0-0--0----0-0-0--6-6-6----6-6-6--6--
--4-4-4------------------------------4-4-4----4-4-4--4--
--2-2-2-------------------------------------------------

-------------------------------------------------------
-------------------------------------------------------
-------------------------------------------------------
--2----------------------------------------------------
--2-----4-4-4----4-4-4--4----4-4-4--4-4-4----4-4-4--4--
--0-----2-2-2----2-2-2--2----2-2-2--2-2-2----2-2-2--2--

--------------------------------------------------------
--------------------------------------------------------
---------2-2-2----2-2-2--2----2-2-2---------------------
---------0-0-0----0-0-0--0----0-0-0--6-6-6----6-6-6--6--
--4-4-4------------------------------4-4-4----4-4-4--4--
--2-2-2-------------------------------------------------

-------------------------------------------------------
-------------------------------------------------------
-------------------------------------------------------
--2----------------------------------------------------
--2-----4-4-4----4-4-4--4----4-4-4--4-4-4----4-4-4--4--
--0-----2-2-2----2-2-2--2----2-2-2--2-2-2----2-2-2--2--

--------------------------------------------------------
--------------------------------------------------------
---------2-2-2----2-2-2--2----2-2-2---------------------
---------0-0-0----0-0-0--0----0-0-0--6-6-6----6-6-6--6--
--4-4-4------------------------------4-4-4----4-4-4--4--
--2-2-2-------------------------------------------------

-------------------------------------------------------
-------------------------------------------------------
-------------------------------------------------------
--2----------------------------------------------------
--2-----4-4-4----4-4-4--4----4-4-4--4-4-4----4-4-4--4--
--0-----2-2-2----2-2-2--2----2-2-2--2-2-2----2-2-2--2--

-----------------------------------------------------------------------------
----------------------------------------------------------------2------------
---------2-2-2----2-2-2--2----2-2-2------------------------------------------
---------0-0-0----0-0-0--0----0-0-0--6-6-6----6-6-6--6----2------------------
--4-4-4------------------------------4-4-4----4-4-4--4----2------------------
--2-2-2---------------------------------------------------0------------------

-------------------------------------------------------0---------------
----------0----------------------------------------2-3--------3-2-0----
----------------2--1---------2-----------------------------------------
------------------------------------2--2--2----------------------------
-----------------------------------------------------------------------
-----------------------------------------------------------------------

------2------------------------------------------------
-------------------------------------------------------
-------------------------------------------------------
-------------------------------------------------------
-------------------------------------------------------
-------------------------------------------------------

----2-4-5------4-2-0---------------------------------------------------------
-----------------------------------------------------------------------------
-----------------------------------------------------------------------------
-----------------------------------------------------------------------------
------------------------------4-4-4----4-4-4--4----4-4-4--4-4-4----4-4-4--4--
------------------------------2-2-2----2-2-2--2----2-2-2--2-2-2----2-2-2--2--

--------------------------------------------------------
--------------------------------------------------------
---------2-2-2----2-2-2--2----2-2-2---------------------
---------0-0-0----0-0-0--0----0-0-0--6-6-6----6-6-6--6--
--4-4-4------------------------------4-4-4----4-4-4--4--
--2-2-2-------------------------------------------------

-------------------------------------------------------
-------------------------------------------------------
-------------------------------------------------------
--2----------------------------------------------------
--2-----4-4-4----4-4-4--4----4-4-4--4-4-4----4-4-4--4--
--0-----2-2-2----2-2-2--2----2-2-2--2-2-2----2-2-2--2--

--------------------------------------------------------
--------------------------------------------------------
---------2-2-2----2-2-2--2----2-2-2---------------------
---------0-0-0----0-0-0--0----0-0-0--6-6-6----6-6-6--6--
--4-4-4------------------------------4-4-4----4-4-4--4--
--2-2-2-------------------------------------------------

-------------------------------------------------------
-------------------------------------------------------
-------------------------------------------------------
--2----------------------------------------------------
--2-----4-4-4----4-4-4--4----4-4-4--4-4-4----4-4-4--4--
--0-----2-2-2----2-2-2--2----2-2-2--2-2-2----2-2-2--2--

--------------------------------------------------------
--------------------------------------------------------
---------2-2-2----2-2-2--2----2-2-2---------------------
---------0-0-0----0-0-0--0----0-0-0--6-6-6----6-6-6--6--
--4-4-4------------------------------4-4-4----4-4-4--4--
--2-2-2-------------------------------------------------

-------------------------------------------------------
-------------------------------------------------------
-------------------------------------------------------
--2----------------------------------------------------
--2-----4-4-4----4-4-4--4----4-4-4--4-4-4----4-4-4--4--
--0-----2-2-2----2-2-2--2----2-2-2--2-2-2----2-2-2--2--

-----------------------------------------------------------------------------
----------------------------------------------------------------2------------
---------2-2-2----2-2-2--2----2-2-2------------------------------------------
---------0-0-0----0-0-0--0----0-0-0--6-6-6----6-6-6--6----2------------------
--4-4-4------------------------------4-4-4----4-4-4--4----2------------------
--2-2-2---------------------------------------------------0------------------

-------------------------------------------------------0---------------
----------0----------------------------------------2-3--------3-2-0----
----------------2--1---------2-----------------------------------------
------------------------------------2--2--2----------------------------
-----------------------------------------------------------------------
-----------------------------------------------------------------------

------2------------------------------------------------
-------------------------------------------------------
-------------------------------------------------------
-------------------------------------------------------
-------------------------------------------------------
-------------------------------------------------------

----2-4-5------4-2-0-------------------------------
---------------------------------------------------
---------------------------------------------------
---------------------------------------------------
------------------------------2--4--2-4--2-4--2-4--
------------------------------0--2--0-2--0-2--0-2--

---------------------------------------------------------
---------------------------------------------------------
---------------------------------------------------------
--2-------------------2-------4--------------------------
--0-----2--4--2-4--2--0-------2-----2--4--2-4--2-4--2-4--
--------0--2--0-2--0----------------0--2--0-2--0-2--0-2--

-----------------------------------------------------------
-------------------------------------------------------0-2-
--------------------------------------1-1-1-1-1---1--3-----
--2-------------------2-------4-----4-----------4----------
--0-----2--4--2-4--2--0-------2----------------------------
--------0--2--0-2--0---------------------------------------

-----------------------------------------------------------------
--0----------------------------------------------------------0-2-
----3-1-----1-1-1-1-1---1-------------------1-1-1-1-1---1--3-----
--------4-4-----------4---4-1-0-----------4-----------4----------
--------------------------------4---2----------------------------
-----------------------------------------------------------------

-----------------------------------------------------------------
--0-----------------------0-----2----0-----------------------0-2-
----3-1-----1-1-1-1-1---1---1----------3----1-1-1-1-1---1--3-----
--------4-4-----------4-------4-----------4-----------4----------
-----------------------------------------------------------------
-----------------------------------------------------------------

-----------------------------------------------------------------
--0----------------------------------------------------------0-2-
----3-1-----1-1-1-1-1---1-------------------1-1-1-1-1---1--3-----
--------4-4-----------4---4-1-0-----------4-----------4----------
--------------------------------4---2----------------------------
-----------------------------------------------------------------

------------------------------------------------------------------------
--0-----------------------0-----2----0----------------------------------
----3-1-----1-1-1-1-1---1---1----------3--------------------------------
--------4-4-----------4-------4-----------------------------------------
------------------------------------------------------------------------
------------------------------------------------------------------------

------------------------------------------------------------------------
------------------------------------------------------------------------
------------------------------------------------------------------------
------------------------------------------------------------------------
------------------------------------------------------------------------
------------------------------------------------------------------------

------------------------------------------------------------------------
------------------------------------------------------------------------
------------------------------------------------------------------------
------------------------------------------------------------------------
------------------------------------------------------------------------
------------------------------------------------------------------------

------------------------------------------------------------------------
------------------------------------------------------------------------
------------------------------------------------------------------------
------------------------------------------------------------------------
------------------------------------------------------------------------
------------------------------------------------------------------------

------------------------------------------------------------------------
------------------------------------------------------------------------
------------------------------------------------------------------------
------------------------------------------------------------------------
------------------------------------------------------------------------
------------------------------------------------------------------------

------------------------------------------------------------------------
------------------------------------------------------------------------
------------------------------------------------------------------------
------------------------------------------------------------------------
------------------------------------------------------------------------
------------------------------------------------------------------------

-----------------------------------------------------
-----------------------------------------------------
-----------------------------------------------------
-----------------------------------------------------
------2-2-2----2-2-2--2----2-2-2--2-2-2----2-2-2--2--
------0-0-0----0-0-0--0----0-0-0--0-0-0----0-0-0--0--

--------------------------------------------------------
--------------------------------------------------------
--------------------------------------------------------
--------------------------------------------------------
--2-2-2--2-2-2----2-2-2--2----2-2-2--2-2-2----2-2-2--2--
--0-0-0--0-0-0----0-0-0--0----0-0-0--0-0-0----0-0-0--0--

--------------------------------------------------------
--------------------------------------------------------
--------------------------------------------------------
---------2-2-2----2-2-2--2----2-2-2--2-2-2----2-2-2--2--
--2-2-2--0-0-0----0-0-0--0----0-0-0--0-0-0----0-0-0--0--
--0-0-0-------------------------------------------------

--------------------------------------------------------
--------------------------------------------------------
--------------------------------------------------------
--2-2-2-------------------------------------------------
--0-0-0--2-2-2----2-2-2--2----2-2-2--2-2-2----2-2-2--2--
---------0-0-0----0-0-0--0----0-0-0--0-0-0----0-0-0--0--

-----------------------------------------------------------
-----------------------------------------------------------
-----------------------------------------------------------
---------6------6------6--------6------6------6------6-----
--2-2-2--4--4-4-4--4-4-4--4-4---4--4-4-4--4-4-4--4-4-4--4--
--0-0-0----------------------------------------------------

----------------------------------------------------------
----------------------------------------------------------
----------------------------------------------------------
--4-----2------2------2--------2------2------2------2-----
--2-----0--0-0-0--0-0-0--0-0---0--0-0-0--0-0-0--0-0-0--0--
----------------------------------------------------------

----------------------------------------------------------
----------------------------------------------------------
----------------------------------------------------------
--2--4--6------6------6--------6------6------6------6-----
--0--2--4--4-4-4--4-4-4--4-4---4--4-4-4--4-4-4--4-4-4--4--
----------------------------------------------------------

------------------------------------------------------------------
------------------------2-----------------------------------------
--------2---------------------------------------------------------
--4-----0------2--------4-----------------------------------------
--2------------2-------------------------------2-2-2----2-2-2--2--
---------------0-------------------------------0-0-0----0-0-0--0--

--------------------------------------------------------
--------------------------------------------------------
--------------------------------------------------------
--------------------------------------------------------
--2-2-2--2-2-2----2-2-2--2----2-2-2--2-2-2----2-2-2--2--
--0-0-0--0-0-0----0-0-0--0----0-0-0--0-0-0----0-0-0--0--

--------------------------------------------------
--------------------------------------------------
--------------------------------------------------
--------------------------------------------------
--2-2-2--2--2---2---2----------2-2-2----2-2-2--2--
--0-0-0--0--0---0---0----------0-0-0----0-0-0--0--

--------------------------------------------------------
--------------------------------------------------------
--------------------------------------------------------
--------------------------------------------------------
--2-2-2--2-2-2----2-2-2--2----2-2-2--2-2-2----2-2-2--2--
--0-0-0--0-0-0----0-0-0--0----0-0-0--0-0-0----0-0-0--0--

--------------------------------------------------------
--------------------------------------------------------
------------------------  
Наверх