Аккорды Обе-Рек - Жизни мало

Добавлено: @romashka
Дата добавления: 22 Декабря 2019г.
Рейтинг:
0.0
Просмотров: 106
Транспонировать - +
Вступление:
   Am7(V)     F       Bm7-5  E
e|------5-7--------0-1-------------------|
B|----------5----------0-----3-----------|
G|----5--------------------2-2-------4-5-|
D|---------------------------3-2---2-----|
A|-0-------------3-------2---------------|
E|------------1------------------4-------|

   Am7(V)     F       Bm7-5  E
e|------5-7--------0-1----------0-1--0---|
B|----------5----------0-----3-----------|
G|----5--------------------2-2-----------|
D|---------------------------3-----------|
A|-0-------------3-------2---------------|
E|------------1--------------------------|

   Am7(V)      F        
e|-7-5-----7-5----------------0----------4-0----| 
B|-----5-------5--------10/12----------0-----3--| 
G|-------5-------5-------------------5---------4| 
D|-------------------10-10/12------3------------| 
A|-0-------0-------8-------------5--------------| 
E|----------------------------------------------| 

   Am7(V)     F        
e|-7-5-------7-5-7/10-------0-----------4-0---0-|
B|-----5------------------------------0-----3---|
G|-------5----------------10--------5-----------|
D|----------------------10--------3-------------|
A|-0-------0---------8----------5---------------|
E|----------------------------------------------|

Pre-Verse:
 Am7(V)       F       Bm7-5   E
e|-----5-7--------0-1---------------0-1-0|
B|---------5----0-----0-----3------------|
G|---5--------------------2-2------------|
D|--------------------------3------------|
A|-0-----------3--------2---------2------|
E|-----------1------------------0--------|

Перебор:
 Am7    F      Dm7(V) E
e|-----0----------------5-----------|
B|-----1-------1--------6-------0---|
G|-----0-------2--------5-------1---|
D|---2---2-----3------7---7-----2---|
A|-0---------3---3---5--------2---2-|
E|---------1-------1--------0-------|

Бридж:
  E       Am7(V) F Dm7(V)  E 
e|-----0-1-0-----5-7----------------------------|
B|-------------------5---------------6--------0-|
G|--------------------------2-2------5------1---|
D|-2--------------------------3-3/7--7----2-----|
A|-2---------0------------3---3-1/5--5--2-------|
E|----------------------1-----1-----------------|

Pre-Verse: Am7(V)

   F         Bm7-5  E   Am7(V)
Ускорить бег в этом состязании,
  F     Bm7-5   E 
И полон век разочарований.
Am7(V)   F    Dm7(V) //Тихо боем или перебором 
Я хватаю время за пульс
   E
И считаю жадно.
Am     F  Dm7(V)
Притаилась, целится грусть
      E  // E обыгрывается как в начале Бриджа
Из своей засады.
Am7   F  // Боем
Жизни мало,
Dm7(V)  E           Am7  F
Чтобы встретиться на всех вокзалах,
Dm7(V) E           Am7     F
Чтоб услышать чаек всех причалов,
Dm7(V) E          Am7
Чтобы помахать вслед всем
F Dm7(V) E   Am7(V) // С E Бридж
Отнявшим веру поездам.
   F
Мы уходим,
Dm7(V) E      Am7    F  // С Am7 Боем
Слов и дела оставляя всходы,
Dm7(V) E       Am7  F
Прорастают семена породы,
Dm7(V)  E              Am7 //Перебор на E и затухание
В них теснится детский смех
  F Dm7(V)  E
И новый крик свободы.

   Em       C     Am    B7
e|------2-3--------------------------------|
B|----------0--------0-1-------1-0---------|
G|-----------------0-----0-----2-----------|
D|----2----------2-----------2-2-----1-4-5-|
A|------------3------------0-------2-------|
E|-0---------------------------------------|

   Em       C     Am    B7
e|------2-3-----------------------------------|
B|----------0--------0-1-------1--------------|
G|-----------------0-----0-----2---2----------|
D|----2----------2-----------2-2---1----------|
A|------------3------------0-------2----------|
E|-0------------------------------------------|

Em    C       Am B7 //Боем
Я знал, что жить будет интересно,
Em  C     Am        B7
Ни так кружить по путям железным.
Em      C     
Обнимая все города,
Am B7
Как родного друга.
Em       C   Am
Ты моя отрада, беда,
    B7
Музыка, супруга.

Em    C
Жизни мало,
Am B7      Em   C
Чтобы встретиться на всех вокзалах,
Am  B7    Em    C
Чтоб услышать чаек всех причалов,
Am B7    Em
Чтобы помахать вслед всем
C  Am B7
Отнявшим веру поездам.
Em C
Мы уходим,
Am   B7     Em      C
Слов и дела оставляя всходы,
Am    B7       Em   C
Прорастают семена породы,
Am    B7        Em //Перебор на Em и затухание
В них теснится детский смех
  С   Am B7
И новый крик свободы.

Em  C   Am         B7      //Перебор
Растает боль, все погаснут лица,
Em  C   Am         B7
И жизнь рекой дальше устремится.
Em          C      //Боем
В памяти цветут острова,
Am     B7
Нам не удержаться.
Em        C
Робинзоны сходят с ума,
Am     B7
Магелланам снятся...

Em   C    //Перебором
О-о-океаны,
Am  B7        Em   C
Но мы не встретимся на всех вокзалах,
Am    B7 Em C   //Боем с Em
Не услышим чаек всех причалов,
Am B7  Em
Не помашем вслед всем
C        Am   B7
Уносящим веру поездам.
Em     C
Мы-ы-ы уходим,
Am     B7      Em    C
Слов и дела оставляя всходы,
Am    B7       Em   C
Прорастают семена породы,
Am B7        Em //с Em затухание
В них теснится детский смех
  С Am B7
И новый крик свободы.

Кода: Em7 Em7 E7sus4 Em7 Bm Bm Bsus4 Bm 
      Am(V) Am(V) Am(V) Am(V) 
      Bm(VII) Bm(VII) B7(VII) B7(VII)
      Em7 Em7 E7sus4 Em7 Bm Bm Bsus4 Bm 
      Am(V) Am(V) Am(V) Am(V) 
      Bm(VII) Bm(VII) B7(VII) B7(VII)
      Em7 Em7 E7sus4 Em7 Em7 Em7 E7sus4 
      Em7 Em7 Em7 E7sus4 Em7    

Am7    x02010(3) (V) x05555
Bm7-5  x23235
Dm7    xx0211 (V) x57565
Dm     xx0231 (V) x57765
Em7    x79787
E7sus4 x797'10'5
Bm     x24432
B7sus4 x24252
Am(V)  577555
Bm(VII)799777
B7(VII)7978'10'7
F      133211
E      022100
Em     022000
C      032010
Am     х02210
B7     х21202

Бой для примера: ↓-↓-↓↑
Наверх