Аккорды Olivia Rodrigo - Happier/ Deja Vu Mashup

Добавлено: @romashka
Дата добавления: 25 Марта 2024г.
Рейтинг:
0.0
Просмотров: 44
Транспонировать - +
This mashup is based on the Sour Prom performance.
 
[Intro - Fingerstyle]
   Cmaj7
e|--------------------------------------------------------------------------|
B|-------0--------0--------0--------0--------0--------0--------0--------0---|
G|-------0--------0--------0--------0--------0--------0--------0--------0---|
D|-------2--------2--------2--------2--------2--------2--------2--------2---|
A|--/3--------3--------3--------3--------3--------3--------3--------3-------|
E|--------------------------------------------------------------------------|
    G
e|--------------------------------------------------------------------------|
B|-------0--------0--------0--------0--------0--------0--------0--------0---|
G|-------0--------0--------0--------0--------0--------0--------0--------0---|
D|-------0--------0--------0--------0--------0--------0--------0--------0---|
A|--------------------------------------------------------------------------|
E|---3--------3--------3--------3--------3--------3--------3--------3-------|
 
[Happier - Verse 1]
Cmaj7
We broke up a month ago
       G
Your friends are mine, you know I know
             Am
You've moved on, found someone new
          D
One more girl who brings out the better in you
 
[Deja Vu - Radio Interlude]
Cmaj7
Car rides to Malibu
            G
Strawberry ice cream, one spoon for two
             Cmaj7
And tradin' jackets
                                  G
Laughin' 'bout how small it looks on you
 
[Happier - Verse 2]
      Cmaj7
And I hope you're happy (When she's with you)
      G
Just not like how you were with me (Do you get deja vu?)
              Am
That was the show we talked about
                Am
Played you the song she's singing now
                Gmaj7
When she's with you
   Gmaj7
Do you get déjà vu?
 
[Deja Vu - Interlude]
 
     Cmaj7                  G 
e|----------------------|----------------------------|
B|---0/12-------0/12----|----------------------------|
G|----------------------|---0/12-----4---2---0-------|
D|----------------------|------------------------2---|
A|----------------------|----------------------------|
E|----------------------|----------------------------|
 
[Happier & Deja Vu - Verse 3]
Cmaj7
(Watchin' re-runs of Glee)
               Cmaj7
Most beautiful girl you've ever seen
         G
(Bein' annoying, singin' in harmony)
      G
You know you'll nеver mean
              Am                                           Gmaj7
(I bet shе's braggin' to all her friends sayin' you're so unique)
     Gmaj7
She probably gives you butterflies
 
[Happier - Outro]
      Cmaj7
And I hope you're happy
     G
Just not like how you were with me
     Am
I'm selfish, I know
   Am
I can't let you go
    D
So find someone great, but don't find no one better
   D
I hope you're happy but don't be happier
Наверх