Аккорды Перемотка - Край

Добавлено: @romashka
Дата добавления: 06 Мая 2022г.
Рейтинг:
0.0
Просмотров: 40
Транспонировать - +
Интро:

 E| --------0-----------------0---------------------------------------------------
 B| --1-3-1---3-3-1-0---1-3-1---3-3-1-0---1-1-1-0-----0-1-3-3-3-1-0-0-1-1-0-0-1-1-
 G| 2-----------------2-----------------2---------2-2-----------------------------
 D| ------------------------------------------------------------------------------
 A| ------------------------------------------------------------------------------
 E| ------------------------------------------------------------------------------

 E| ------------------------------------------------------------------------------
 B| 0---0-3-1-0---0---------------------------------------------------------------
 G| --2---------2-----------------------------------------------------------------
 D| ------------------------------------------------------------------------------
 A| ------------------------------------------------------------------------------
 E| ------------------------------------------------------------------------------

Am Am Dm E
Am Am Dm E
F F Dm E
Am Am Dm E

Привет, мой друг.
Как же темно вокруг.
Привет, мой друг.
Как холодно вокруг.
Съедающий испуг, полуобрывком фраз:
Мы вновь в чужих краях.

Прикладом по невинному лицу,
Да здравствует искусственный парад.
Ты априори слаб, априори виноват.
Привет, встречай любимую страну.

Прощай мой Бог,
Да здравствует печаль!
Раздолбан тротуар,
И вновь на ужин чай.
И вновь на ужин сон,
Где теплая земля,
Где ты любим и свят.

Прикладом по невинному лицу.
Да здравствуют режимы и парад!
Забившийся в углу,
Обернулся светлый край
В пропащую страну. 
Наверх