Аккорды Перемотка - Ночь эпохи

Добавлено: @romashka
Дата добавления: 20 Октября 2022г.
Рейтинг:
0.0
Просмотров: 55
Транспонировать - +
Аккорды:
C D Em Em
C D Em Em
C D Em Em
G G Em Em

Интро переборчик:
B|---8---8---10-----10---10-----12---12---10-----10---10--
G|-7---7---7----7-7----7----7/9----9----9----9-9----9----9

B|---8---8---10-----10---10-----12---12---10-----10---10--
G|-7---7---7----7-7----7----7/9----9----9----9-9----9----9

B|---8---8---10-----10---10-----13---13---12-----12---12--
G|-7---7---7----7-7----7----7/9----9----9----9-9----9----9

B|---8---8---10-----10---10-------------------------------
G|-7---7---7----7-7----7----7---9---9---9---9---9---9---9-
D|----------------------------9---9---9---9---9---9---9---

G|---9---9---9---9----------------------------------------
D|-9---9---9---9------------------------------------------

Текст:
Наверное, мы родились не в ту эпоху и час,
Не в то столетье, не в тот месяц и год,
Мы будем рады если вы заберёте нас,
На сто лет назад, на сто лет вперёд.

Вдыхая прохладный дым былых времён,
От образов остался только сказ,
Ушедших черт и забытых времён,
Ушла эпоха и здесь забыла нас.

Мы хотели бы встретить наших бравых друзей,
Но они ещё не родились или исчезли давно,
Покорители неба открыватели новых земель,
Ставят высокие цели меняющие мир за окном. 

Темп - 175bpm, бой - шестёрка
Наверх