Аккорды Песни из кинофильмов - Ведьмаку заплатите чеканной монетой (из кинофильма "Ведьмак")

B        F         Db      Eb       B        Eb      B
Ведьмаку заплатите чеканной монетой, чеканной монетой Уооу!
B        F         Db      F
Ведьмаку заплатите — зачтется все это вам!

B               Eb                B
Он хоть на край Земли отправиться готов
              Eb                B
Сразить всех чудовищ, убить всех врагов!

B              Eb         B      
Он эльфов всех прогнал за Дальний Перевал!
         Eb            F
Высокие горы на вечный привал…

B                   Eb                        B
Он бьет не в бровь, а в глаз. Был ранен много раз!
          Eb                    B
Он людям товарищ — всегда он за нас!

            Eb                B
К чему эта вражда, никак я не пойму!
       Eb                     F
Он нас защищает — так налейте ж ему!

B      F       Db      Eb      B       Eb       B
Ведьмаку заплатите чеканной монетой, чеканной монетой Уооу!
B      F       Db             F
Ведьмаку заплатите — зачтется все это вам!

B      F       Db      Eb      B       Eb       B
Ведьмаку заплатите чеканной монетой, чеканной монетой Уооу!
B      F       Db             F
Ведьмаку заплатите — зачтется все это вам!

--------------------------- -------1----------------1- -----1--------1---1------------
---2--1----------4-4-2-1--- ---4-4---2--------4-2-4--- ---2----4-2-4-------4-2-1-2----
-3------3-1-3------------3- -3---------3----3--------- -3---------------------------3-
--------------------------- -------------------------- -------------------------------
--------------------------- -------------------------- -------------------------------
--------------------------- -------------------------- -------------------------------

-1-------------------- -----1--------1-----4--------5-6-
---4-2-1-2----------2- ---2----4-2-4-----6---6-4-6------
------------3---1-3--- -3-------------------------------
---------------------- ---------------------------------
---------------------- ---------------------------------
---------------------- ---------------------------------
comments powered by Disqus
Наверх