Аккорды Песни из кинофильмов - The Good, the Bad And the Ugly (из кинофильма "The Good, the Bad And the Ugly" - "Хороший, плохой, злой")

Добавлено: @vitos
Дата добавления: 30 Июня 2016г.
Рейтинг:
0.0
Просмотров: 447
Транспонировать - +
      h  p  h  p    w/bar
e---17-22-17-22-17----------------------
g---------------------------------------
b-------------------------10---12-------
d----------------------------------12---
a---------------------------------------
e---------------------------------------

      h  p  h  p     w/bar
----17-22-17-22-17----------------------
------------------------------13--------
----------------------10---12-----------
----------------------------------------
----------------------------------------
----------------------------------------

      h  p  h   w/bar
----17-22-17-22--------------------------
-----------------------------------------
----------------------10----9------------
-------------------------------12---10---
-----------------------------------------
-----------------------------------------


    h  p  h  p     w/bar
--17-22-17-22-17-------------------------
-----------------------------------------
-----------------------12----------------
---------------------------12------------
-----------------------------------------
-----------------------------------------
comments powered by Disqus
Наверх