Аккорды Песни из мультфильмов - Clara? (из мультфильма "Doctor Who")

Добавлено: @romashka
Дата добавления: 18 Июля 2021г.
Рейтинг:
0.0
Просмотров: 143
Транспонировать - +
G                     Am                     G                     Am
-3-------------------------------------0------3-----------------------------------0-----
-0---0-0-0---0-1-3-1-0-1---1-1-1---1-3---3-1--0---0-0-0---0-1-3-1-0-1-1-1-1---1-3---3-1-
-0---------------------2----------------------0---------------------2-------------------
-0---------------------2----------------------0---------------------2-------------------
-2---------------------0----------------------2---------------------0-------------------
-3--------------------------------------------3-----------------------------------------

 C                     Bm                    C                     G   repeat
-0---0-0-0---0-2-3-2-0-2-------------0-2-0---0---------------0-----3--------------------
-1---------------------3---3-3-3---3-------3-1---1-1-1---1-3---3-1-0--------------------
-0---------------------4---------------------0---------------------0--------------------
-2---------------------4---------------------2---------------------0--------------------
-3---------------------2---------------------3---------------------2--------------------
-------------------------------------------------------------------3--------------------
Наверх