Аккорды Пикник - Кровь, остынь (Фараон)

Добавлено: @romashka
Дата добавления: 13 Июля 2018г.
Рейтинг:
0.0
Просмотров: 3
Транспонировать - +
Intro: (играется в начале и между куплетами)
E|--8-10-12-|-7-9—10-|----------|---------|
B|-8--------|--7-----|--9-11-12-|--7-9-11-| x3 
G|----------|--------|-9--------|-7-------|

E|--8-10-12-|-7-9—10-|----------|---------|--------}
B|-8--------|--7-----|--9-11-12-|--7-9-11-|-8------|
G|----------|--------|-9--------|-7-------|--9-8-9-|

D#m
Как окно в темный зал,
Bb
Фараона глаза.
D#m
Словно плен цепких рук,
Bb       G#m 
Одиночества круг.
 
Проигрыш = Intro: (эхом дублировать каждый такт)
E|--8-10-12-|-7-9—10-|----------|---------|
B|-8--------|--7-----|--9-11-12-|--7-9-11-| x3 
G|----------|--------|-9--------|-7-------|

E|--8-10-12-|-7-9—10-|----------|---------|--------}
B|-8--------|--7-----|--9-11-12-|--7-9-11-|-8------|
G|----------|--------|-9--------|-7-------|--9-8-9-|

D#m
Только смех, смех жрецов,
Bb
Как песок бьет в лицо.
D#m
Если так - кровь остынь.
Bb       G#m 
Город мой стань пустым.

E|--8-10-12-|-7-9—10-|----------|---------|
B|-8--------|--7-----|--9-11-12-|--7-9-11-| x3 
G|----------|--------|-9--------|-7-------|

E|--8-10-12-|-7-9—10-|----------|---------|--------}
B|-8--------|--7-----|--9-11-12-|--7-9-11-|-8------|
G|----------|--------|-9--------|-7-------|--9-8-9-|

D#m
Только смех, смех жрецов,
Bb
Как песок бьет в лицо.
D#m
Если так - кровь остынь.
Bb       G#m 
Город мой стань пустым.

Кода: 
E|--8-10-12-|-7-9—10-|----------|---------|
B|-8--------|--7-----|--9-11-12-|--7-9-11-| x3 
G|----------|--------|-9--------|-7-------|

E|--8-10-12-|-7-9—10-|----------|---------|--------}
B|-8--------|--7-----|--9-11-12-|--7-9-11-|-8------|
G|----------|--------|-9--------|-7-------|--9-8-9-|

Куплеты играются отдельными ударами
comments powered by Disqus
Наверх