Аккорды Pink Floyd - Comfortably Numb

Добавлено: @romashka
Дата добавления: 13 Сентября 2020г.
Рейтинг:
0.0
Просмотров: 120
Транспонировать - +
E|---------------------------------------------------------------------------------------------------------------------------
B|--------3-----------------------------------------------------------10--12--12b15--12b15--10--12v--------------------------
G|--14/2--2-----7--9--9b11--9b11--9--7-----7h9--9v--7-----7v-----2/9------------------------------------4/7--9--9b11--7v-----
D|--------0-----------------------------9--------------9---------------------------------------------------------------------
A|---------------------------------------------------------------------------------------------------------------------------
E|---------------------------------------------------------------------------------------------------------------------------

E|----------------------------------------------7--9--9b10--9p7--------------------------------------------------------------
B|---------------------------------------------------------------10--10b12-----10--7-----------10--7-------------------------
G|-------6-------------------------7--------------------------------------------------9--9b11---------9b11--7-----7--7b9.....
D|--4/7-----7/9v----------7--7--9-----9--7--9v-----------------------------------------------------------------9-------------
A|-------------------2/9-----------------------------------------------------------------------------------------------------
E|---------------------------------------------------------------------------------------------------------------------------

E|---------------------------------------------------------------------------------------------------------------------------
B|---------------------------10--12b15--10--12b14----------------------------------------------------------------------------
G|..7/6--6-------------7/11-----------------------------7--9b11--7--9--7b9--6b7---------7--9b11r9--7/6---------------7-------
D|----------7v--9v---------------------------------4/9---------------------------7v--9------------------7/9v----4/7-----9--9-
A|---------------------------------------------------------------------------------------------------------------------------
E|---------------------------------------------------------------------------------------------------------------------------

E|-------------------------------------------------------------------------------------7--х--10--7---------------------------
B|-------------------------------------------------------------------------------------7--х--10--7---------------------------
G|-----------7-----------------6--6/7--7/6---------------------------------7-----------------------------7--------------7---.
D|-----7--9-----9/7--7v---------------------9--9/7--7--7/4--4--4v-----4/7-----9--9------------------4/7-----9--7v--4/9-----9-
A|--9-----------------------9------------------------------------------------------------------------------------------------
E|---------------------------------------------------------------------------------------------------------------------------

E|---------------------------------------------------------------------------------------------------------------------------
B|----------------------------------------------------------------------7--х--7--х--7--х-----7--х--7--х--7--х--7--х----------
G|..9br11--9--7-----7v------------------------7v------------------------7--х--7--х--7--х-----7--х--7--х--7--х--7--х----------
D|---------------9------9--7-----7v--9--7---------9--7-----7v--9--7-----------------------9----------------------------------
A|----------------------------9------------9------------9------------9-------------------------------------------------------
E|---------------------------------------------------------------------------------------------------------------------------

E|------------------------------------------------------------------------------------------------10h12--12b14r12p10.........
B|--10h12v-----10---------------------------------10h12--12b15r12-----10h12--12b15r12v-----12b13-----------------------------
G|-----------------9b11r9--7-----9--7b9-----4/11-----------------------------------------------------------------------------
D|----------------------------9----------------------------------------------------------------------------------------------
A|---------------------------------------------------------------------------------------------------------------------------
E|---------------------------------------------------------------------------------------------------------------------------
-
E|..12b14r(12)b14r12p10--12--12b14--12b14r12--10b11---------------------------------------------------------------------7....
B|---------------------------------------------------12v-----10--12----------------------------------------7-----10--7-------
G|---------------------------------------------------------------------9--8b9--7b8---------------------7--9------------------
D|----------------------------------------------------------------------------------9--7---------7--9------------------------
A|----------------------------------------------------------------------------------------9v---------------------------------
E|---------------------------------------------------------------------------------------------------------------------------

E|..---------------------------7--10--7---------------10p7------7h10p7--10b12--10--9--7--------------------------------------
B|------------------10--10-----7------7--10--------7--------10---------------------------10----------------------------------
G|--7----9p7--9b11------9b11-----------------9b11--------------------------------------------9b11--9--9b11--7-----7..........
D|--7h9--9p7---------------------------------------------------------------------------------------------------9-------------
A|---------------------------------------------------------------------------------------------------------------------------
E|---------------------------------------------------------------------------------------------------------------------------

E|-------------------------------------------------------------------------------------------7--10--7--10--7-----------------
B|-------------------------------------------------------------------------7--7--7-----------7--10--7--10--7-----------------
G|..9b11r9--9p7-----7b9---------------------------------------------7------7--7---------9b11---------------------7b9---------
D|---------------9-------9--7--9--7----------------------------4/7--7--9v-----------7v------------------------9-------9--7...
A|-----------------------------------9/7--5-----5----------------------------------------------------------------------------
E|-------------------------------------------7-----7--5--7v------------------------------------------------------------------

E|---------------17----------------------------------------------------------------------------------------------------------
B|--------17b19======r17--17p15--17-------15--17--17b19--17p15--17v--17b19--17--15------17-----7/10--12--12b14--12b14--12--10
G|-----------------------------------16v--------------------------------------------16---------------------------------------
D|..9v/16--------------------------------------------------------------------------------------------------------------------
A|---------------------------------------------------------------------------------------------------------------------------
E|---------------------------------------------------------------------------------------------------------------------------

E|---------------------------------------------------------------------------------------------------------------------------
B|..12v--7/10--12--12b14r12--12--12b14--10--12---------------------------------------------17b19--17b19r17--15--17-----------
G|----------------------------------------------9v--9b11r9-----7--9--9--7--9--7v-----7/16---------------------------16v------
D|----------------------------------------------------------9----------------------------------------------------------------
A|---------------------------------------------------------------------------------------------------------------------------
E|---------------------------------------------------------------------------------------------------------------------------

E|--19v--19v--19v--19--21--21b22--21b22--21--21b22r21---22--21b22r21--21--19h21p19v/10----------17---------------------------
B|---------------------------------------------------------------------------------------17b19======r17--15------17--17b19r17
G|-----------------------------------------------------------------------------------------------------------16--------------
D|---------------------------------------------------------------------------------------------------------------------------
A|---------------------------------------------------------------------------------------------------------------------------
E|---------------------------------------------------------------------------------------------------------------------------

E|---------------------------------------------------------------------------------------------------------------------------
B|--17b19--15b16-------------------------------------------------------------------------------------------------------------
G|----------------16v-----9--7--9--9b11r9--7-----7--9--9b11r9--7-----7--9--9b11r9--7-----9-----7-----------------------------
D|--------------------------------------------9-------------------9-------------------9-----9-----9--7-----7-----------------
A|------------------------------------------------------------------------------------------------------9-----9--8--7/5-----.
E|-----------------------------------------------------------------------------------------------------------------------7---

E|---------------------------------------------------------------------------------------------------------------------------
B|---------------------------------------------------------------------------------------------------------------------------
G|---------------------------------------------------------------------------------------------------------------------------
D|----------------4----------------------------------------------------------------------------------------------------------
A|..5-------------2----------------------------------------------------------------------------------------------------------
E|-----7--6--5/2-------------------------------------------------------------------------------------------------------------

Наверх