Аккорды Poets Of The Fall - Beautiful Ones

Добавлено: @romashka
Дата добавления: 03 Октября 2016г.
Рейтинг:
0.0
Просмотров: 391
Транспонировать - +
VERSE:
Am C  
e|--------------------------|--------------------------|  
B|-------1-----1-----1------|-------1-----1-----1------|  
G|---------2-----2-----2----|---------0-----0-----0---0|  
D|---2-------2-----2--------|---2-------2-----2-----2--|  
A|-0---0-----------------0-2|-3---3--------------------|  
E|--------------------------|--------------------------| 
 
Am C  
Flies with a broken wing, she's ever so graceful, so like an angel,  
Am C  
but I see, tears flow quietly.  
Am C  
The struggle she's seen this spring, when nothing comes dancing,  
Am C  
paying a handsome fee, and still she smiles at me. 
G G  
And I can't take it, no I can't help but wonder... 
 
CHORUS:
F C G C  
e|---------------------------------------------------0---|  
B|-------1-------------3-------------3-------------3-----|  
G|---------2---2-----0---0---0----------0--------0-------|  
D|-----3-----3-----2-------2-------0-------0---2---------|  
A|---3-----------3---------------2-----------3-----------|  
E|-1---------------------------3-------------------------| 
 
F C G  
e|-----------------------------------------------0-------|  
B|-------1-------------3-------------3-----3-------3-----|  
G|---------2---2-----0---0---0---------0-----0-------0---|  
D|-----3-----3-----2-------2-------0-----0-----0-------0-|  
A|---3-----------3---------------2-----------------------|  
E|-1---------------------------3-------------------------| 
 
F C G C  
Why do we sacrifice the beautiful ones?  
F C G  
How do you break a heart of gold?  
F C G C  
Why do we sacrifice our beautiful souls?  
F C G  
Heroes of tales unsung, untold. 
 
Am C  
Sweet as an angel sings, she gives though 
she has none left but the  
Am C  
last one, free, unhesitatingly. 
 
G G  
And I am humbled, I'm a broken mirror, 
and I can't help but wonder... 
 
Why do we sacrifice the beautiful ones?  
How do you break a heart of gold?  
Why do we sacrifice our beautiful souls?  
Heroes of tales unsung, untold. 
 
Why do we sacrifice the beautiful ones?  
Why when they walk with love alone?  
Why do we sacrifice our beautiful souls?  
Just trying to find their way home.
Наверх