Аккорды Приключения Электроников - Неуловимые мстители (Погоня)

Добавлено: @romashka
Дата добавления: 16 Марта 2013г.
Рейтинг:
5.0
Просмотров: 610
Транспонировать - +
E|-------------------------------------------|
B|-1--------------1-4-2------------1---------|
G|-----------1--------------1--0--------0--1-|
D|------3------------------------------------|
A|-------------------------------------------|
E|-------------------------------------------|

E|---------------1----3----1---------------------|
B|-------------1-----------------4-----------2-1-|
G|-0---------1-------------------------3---------|
D|------3----------------------------------------|
A|-----------------------------------------------|
E|-----------------------------------------------|

E|------4----1----4-3-------------------------3-|
B|-1------------------4-----------7----6----4---|
G|--------------------------5-------------------|

E|----------------------------------------1-|
B|-----------------------------2--2----2----|
G|-1--0--0----0--3-----3----3---------------|

E|-1----1--------------------------|
B|---------1----4-----------2----1-|
G|---------------------------------|

E|----------------------------------------1-|
B|-----------------------------2--2----2----|
G|-1--0--0----0--3-----3----3---------------|

E|-1----1-------4-----------3----1-|
B|---------1-----------------------|
G|---------------------------------|
comments powered by Disqus
Наверх