Аккорды Прикольные песни - Ой, то не вечер

Добавлено: @romashka
Дата добавления: 01 Ноября 2018г.
Рейтинг:
0.0
Просмотров: 9
Транспонировать - +
  Am            E               Am      G       C         G       C
E|-0-1-0-------------0-----1-0---0-----0-3-1-0---0-----1-0-------3-0-----0-3-0-----
B|---------1-0-----0---0-------3-----1---------3-----1-----3---3-------1-------3-0-
G|-2-----2-----2-1-------1---------2---------------0---------0-------0-------------
D|---------------------------------------------------------------------------------
A|-0-----------------------------0---------------3-----------------3---------------
E|---------------0-----------------------3-----------------3-----------------------

   G       E *     Am      Dm  E   Am        G
E|-3------3-4-----4-5-------------7-5-----7-5-3-----3-0-----0-3-0-----
B|-----3-------3-------5-8-8-6-5-------5---------3-------1-------3-0--
G|---0-------4-------5---------------5---------0-------0--------------
D|---------2---------------0------------------------------------------
A|-----------------0---------------0-----------------3----------------
E|-3----------------------------0-------------3-----------------------

   G      Eb *     Am      Dm  E   Am
E|-3-----3-4-----4-5-------------7-5-
B|-----3-------3-------5-8-8-6-5---5-
G|---0-------4-------5-------------5-
D|---------2---------------0---------
A|-----------------0---------------0-
E|-3---------------------------0-----

Am                       E
Ой, то не вечер, то не вечер,
Am    G         C    G
Мне малым-мало спалось,
C                 G  E *
Мне малым-мало спалось,
Am         Dm E     Am  G
Ох, да во сне привиделось.
C                 G  E *
Мне малым-мало спалось,
Am          Dm E    Am
Ох, да во сне привиделось.

Am                 E
Мне во сне привиделось,
Am    G         C    G
Будто конь мой вороной
C                 G  E *
Разыгрался, расплясался,
Am         Dm E   Am G
Разрезвился подо мной.
C                 G  E *
Разыгрался, расплясался,
Am         Dm E    Am  
Разрезвился подо мной.

Am                E
А есаул догадлив был,
Am    G         C    G
Он сумел сон мой разгадать,
C                 G  E *
Ох, пропадёт, он говорил,
Am         Dm E Am G
Твоя буйна голова.
C                 G  E *
Ох, пропадёт, он говорил,
Am         Dm E Am  
Твоя буйна голова.

Am                   E
Как налетели ветры злые
Am    G         C  G
Со восточной стороны,
C                 G  E *
Ой, да сорвали чёрну шапку
Am         Dm E  Am G
С моей буйной головы.
C                 G  E *
Ой, да сорвали чёрну шапку
Am         Dm E   Am  
С моей буйной головы.

Am                      E
Ой, то не вечер. то не вечер,
Am    G         C  G
Мне малым-мало спалось,
C                 G  E *
Мне малым-мало спалось,
Am         Dm E     Am G
Ох, да во сне привиделось.
C                 G E *
Мне малым-мало спалось,
Am         Dm E     Am  
Ох, да во сне привиделось,
Am         Dm E     Am  
Ох, да во сне привиделось.
comments powered by Disqus
Наверх