Аккорды Прикольные песни - День как день... (Не узнает сын про отцовский чин...)

Добавлено: @romashka
Дата добавления: 04 Июня 2020г.
Рейтинг:
0.0
Просмотров: 56
Транспонировать - +
Вступление (соло):

1|-6------6-5-------------------------------|
2|-----8------8-6-------6-8-----------------|
3|----7------------7-78------7----5--787----|
4|---8-------------------------8---------10-|
5|------------------------------------------|
6|------------------------------------------|

1|------------6------6-------6---------------|
2|---------8-------8------8----------------8-|
3|--------7-------7------7-----7----------7--|
4|-8----78-------8------8--------10-8----78--|
5|---10------------------------------10------|
6|-------------------------------------------|


1|-6------6-5--------------------------------6------6-5--|
2|-----8------8-6-------6-8----------------------8-------|
3|----7------------7-78------7----5--787--------7--------|
4|---8-------------------------8---------10----8---------|
5|-------------------------------------------------------|
6|-------------------------------------------------------|


Gm                       D#    Cm
День за днем напролет шёл 17-й год,
                    D#          Cm
На замерзшей земле только пепел и лед,
   D               Gm               Bm
И слышны за окном строевые шаги, снам вопреки,
Cm       D      Gm 
Это идет ЧК, в бой революции.

Припев:
Cm             D             
День как день, словно в двери стук. 
    Gm
Заколдованный круг...
G                   Bm                D#
День как день, беспокойство снов матерей и жен, 
A5                          Gm
Не узнает сын про отцовский чин до седин.


Помним черные дни неотступной войны, 
Как в дыму и огне дни прошлись по судьбе,
Не понять кто был прав, все осталось во мгле, 
НКВД, надпись из прошлого на фронтовом листе.

Припев.

А о них говорят, что глаза их грустны, 
что сердца их горят, а слова холодны,
честь мундира несут безупречно они, 
Помнят лишь дни, что в службе КГБ, сделать они смогли.

Припев

В доме близких друзей тихий праздничный стол, 
В нежном блеске свечей собирает бойцов,
Их невидимый фронт неустанно зовет,
Служба не ждёт,
Пусть в безопасности наша страна живёт.

Играть можно перебором 6, либо боем: бас - вверх - вниз (с глушением).
Наверх