Аккорды Прикольные песни - Сбежать от суеты

Добавлено: @romashka
Дата добавления: 19 Августа 2022г.
Рейтинг:
0.0
Просмотров: 37
Транспонировать - +
[Вступление]
E----------------------------------------
A-0---------------------------3----------
D--0---------------------------2---------
G---2-----------------2---------0--------
B----3-------------3-----3-------3-------
E-----2------3-2------------------0------

E-0------------------3-------------------
A----2------------------2----------------
D----------------------------------------
G-------0-------0----------0-------0-----
B---------0---0---0----------0---0---0---
E-----------0------------------3---------

E----------------------------------------
A-0----------------3---------------------
D--------------------2-------------------
G---0---0-----0--------0-------0---------
B-----2-----2---2--------0---0---0-------
E---------0----------------0-------------

[Проигрыш]: Em | G | Bm (x4)


[Куплет 1]
D                       Bm
Вокруг костра мы все семья
G                A
И улетает в ночь моя душа
D                Bm
И засияли вновь мои глаза
G                     A
В них звезды смотрят, смотрят с высока

[Припев]
Em          G        Bm
Сбежать от суеты, от городских проблем
Em         G        Bm
Никто не сможет помешать ничем
Em       G         Bm
Надоело бегать как белка в колесе
Em        G       Bm
Настало время позвать друзей

[Куплет 2]
D        Bm      
Приятель погнали с нами
G          A
Не могу работать надо
D                Bm
Зовëм другого а он завис в компе
G             A
Я не хочу там скучно мне

[Припев]
Em          G        Bm
Сбежать от суеты, от городских проблем
Em         G        Bm
Никто не сможет помешать ничем
Em       G         Bm
Надоело бегать как белка в колесе
Em        G       Bm
Настало время позвать друзей

[Куплет 3]
D                 Bm
И вдруг искра в душе огонь зажгла
G                  A
Мы вместе смотрим, смотрим в небеса
D                Bm
И полетели искры от костра
G                 A
И в унисон запели юные сердца

[Припев]
Em          G        Bm
Сбежать от суеты, от городских проблем
Em         G        Bm
Никто не сможет помешать ничем
Em       G         Bm
Надоело бегать как белка в колесе
Em        G       Bm
Настало время позвать друзей
Em        G       Bm
              позвать друзей… 
Em        G       Bm
              позвать друзей…

[Проигрыш]: Em | G |Bm 

[Припев и вступление]:
Em | G - восьмеркой с дроблением
Bm - полная восьмёрка

[Куплеты]
D | Bm | G | A - полная восьмёрка.
Наверх