Аккорды Прикольные песни - Каким ты был

Добавлено: @vitos
Дата добавления: 24 Августа 2014г.
Рейтинг:
0.0
Просмотров: 702
Транспонировать - +
------------1----------------5-------3---1-----|
|---3---5---1--------------3---5-----|-------1---5-------5-----------3-|
---2-----2-------------2-|---2-----------------------------|
-------------------0---------3---------------0-|
---0-----------------------------3-------------|
-----------------------------------------------|
     


|-----5---3---1---1-----------------------3--|----3---5-----------3--------|
|-3--------------------5---3---1-------3-----|-3----------5---3-------5----|
-----------------------2------0------------------2-|
---------------------------0------0----------------|
-------------------------------------------------0-|
--0------------------------------------------------|
 

 Em       Am      C      G 
Каким ты был, таким остался,
 C                     E
Орел степной, казак лихой!
 E7        Dm         G7        C
Зачем, зачем ты снова повстречался,   
 Dm        E        Am                 
Зачем нарушил мой покой?              

Зачем опять в своих утратах
Меня хотел ты обвинить?
В одном, в одном я только виновата,
Что нету сил тебя забыть.

Свою судьбу с твоей судьбою
Пускай связать я не могла,
Но я жила, жила одним тобою,
Я всю войну тебя ждала.

Ждала, когда наступит сроки,
Когда вернешься ты домой…
И горьки мне, горьки твои упреки,
Горячий мой, упрямый мой!

Твоя печаль, твоя обида,
Твоя тревога ни к чему:
Смотри, смотри, душа моя открыта,
Тебе открыта одному.

Но ты взглянуть не догадался,
Умчался вдаль, казак лихой…
Каким ты был, Таким ты и остался,
Но ты и дорог мне такой.
comments powered by Disqus
Наверх