Аккорды Прикольные песни - Ламбада

Добавлено: @vitos
Дата добавления: 02 Января 2015г.
Рейтинг:
0.0
Просмотров: 698
Транспонировать - +
-5--3--1--0--------1--0-----------------------------                           
-------------3--3--------3--1--3--------------------
-----------------------------------2--0--2----------
----------------------------------------------------
----------------------------------------------------
----------------------------------------------------

-3--3--3--3-----------5--3--1--------1--0-----------
-------------------3-----------3--3--------3--1--3--
-------------3--3-----------------------------------
----------------------------------------------------
----------------------------------------------------
----------------------------------------------------

Бой:
1 всеми пальцами, кроме большого ударить по струнам вниз
2 подушечкой большого пальца удар вниз  
3 ногтем большого пальца
удар вверх - 2 РАЗА потом 1 И 3 (Бой восьмерка)


 Dm             B             C7            F
Ветер нам принес песню из далеких жарких стран,
 Dm              B             C7             F
Там, где царство грез, пляски и бескрайний океан.
 Gm                 
Ветер виноват в том, что ритм подхватив,
 C7                   Dm
Он по свету развеял мотив.
 Gm
И чарует он, как тропический сон,
 C7                 Dm      
Подпевает нам аккордеон...


Ах, ламбада - ритм, снова нам и снова повтори!
Ах, ламбада - ритм, будем танцевать мы до зари!
Пальмы, и цветы, и луна, и мечты
В этом танце сопутствуют нам.
Жажда красоты, ах, ламбада, где же ты? 
С нами вместе поет океан.
comments powered by Disqus
Наверх