Аккорды Прикольные песни - Школьные годы

Добавлено: @vitos
Дата добавления: 05 Января 2015г.
Рейтинг:
0.0
Просмотров: 727
Транспонировать - +
Вступление:

e|----1-------0-------0-----------
h|--3---3---3---3---3---3---3---3-
g|-2-2-2-2-2-2-2-2-0-0-0-0-0-0-0-0
d|0-------------------------------
a|--------3-------2-------1---0---
e|--------------------------------


 Dm 
Школьные годы
 C
Кончается в жизни этап
 Am
Всем нам немного грустно
 Dm
Но их не вернуть назад


Припев:
 Dm         F          C
Они уйдут захлопнув дверь
 Am                    Dm
K ним не воротишься теперь
Лишь свет прохожих фонарей
Напомнит мне о той поре


Так долго в школе учились
Но годы промчались их нет
И как вернуть их обратно 
Увы ответа нет

Припев


Последние экзамены сдали
Последний звонок прозвенел
Ну все до свидания школа
Назад дороги нет

Припев


Припев:

   Dm      F      C       Am
e|-1-------5------3-------0----
h|-----------------------------
g|-----------------------------
d|-0---------------------------
a|----------------3-------0----
e|---------6-------------------
comments powered by Disqus
Наверх