Аккорды Прикольные песни - Siciliana

Добавлено: @vitos
Дата добавления: 10 Июля 2016г.
Рейтинг:
0.0
Просмотров: 212
Транспонировать - +
 0 |  |  |   |  |  |  |  |  |   |  |  |  |  |  |
E|-0--0--0-|-0-----0--1-----1-|-0-----0--0--1--0-|
B|---------|-1--------0-------|-1----------------|
G|---------|-2--------1-------|/2----------------|
D|---------|------------------|------------------|
A|---------|------------------|------------------|
E|---------|------------------|------------------|


 3 |  |  |  |  |  |   |  |  |  |  |  |   |  |  |  |  |  |   |  |  |  |  |  |
E|----------------0-|----------0--0--0-|-0-----0--1-----1-|-0-----0----------|
B|-3-----0--1-------|-0-----0----------|-1--------0-------|-1--------3--5--6-|
G|-4----1-/2-------|-1----------------|-2--------1-------|-2----------------|
D|------------------|------------------|------------------|------------------|
A|----------0-------|------------------|------------------|------------------|
E|-0----------------|-0----------------|------------------|------------------|


 7 |  |  |  |  |  |   |  |  |
E|------------------|---------|
B|-8-----1--3-----0-|-1-------|
G|------------------|---------|
D|-------2--3-----0-|-2-------|
A|------------------|-3-------|
E|----------------3-|---------|

repeat measures 0-8


 9 |  |  |   |  |  |  |  |  |   |  |  |  |  |  |
E|-0--1--0-|----------0--1--0-|----------0--1--0-|
B|---------|-0-----0----------|-1-----1----------|
G|---------|-1----------------|-2----------------|
D|---------|------------------|------------------|
A|---------|------------------|------------------|
E|---------|-0----------------|-0----------------|


12 |  |  |  |  |  |   |  |  |  |  |  |   |  |  |  |  |  |   |  |  |  |  |  |
E|----------------0-|----------0--1--0-|----------0--1--0-|----------0--1--0-|
B|-3--0--------1----|-0----------------|-0-----0----------|-1-----1----------|
G|-------1--2-------|----1-------------|-1----------------|-2----------------|
D|------------------|-------2----------|------------------|------------------|
A|------------------|------------------|------------------|------------------|
E|-0--------0-------|-0----------------|-0----------------|-0----------------|


16 |  |  |  |  |  |   |  |  |  |  |  |   |  |  |  |  |  |   |  |  |  |  |  |
E|----------------0-|----------0--0--0-|-0-----0--1-----1-|-0-----0--0--1--0-|
B|-3--0--------1----|-0----------------|-1--------0-------|-1----------------|
G|-------1--2-------|-1----------------|-2--------1-------|-2----------------|
D|------------------|------------------|------------------|------------------|
A|----------0-------|------------------|------------------|------------------|
E|-0----------------|-0----------------|------------------|------------------|


20 |  |  |  |  |  |   |  |  |  |  |  |   |  |  |  |  |  |   |  |  |  |  |  |
E|----------------0-|----------0--0--0-|-0-----0--1-----1-|-0-----0--------0-|
B|-3-----0--1-------|-0-----0----------|-1--------0-------|-1--------2--3----|
G|-4-----1--2-------|-1----------------|-2--------1-------|-2--------0-------|
D|------------------|------------------|------------------|-------------3--2-|
A|----------0-------|------------------|------------------|------------------|
E|-0----------------|-0----------------|------------------|------------------|


24 |  |  |  |  |  |   |  |  |
E|-1--0-------------|---------|
B|-------3--1-----0-|---------|
G|----------------1-|-2-------|
D|-0-----3--2-------|---------|
A|------------------|-0-------|
E|----------------0-|---------|

repeat measures 9-24 and then continue...


25 |  |  |  |  |  |   |  |  |  |  |  |   |  |  |  |  |  |   |  |  |
E|----1--0-----1--0-|----1--0----------|------------------|---------||
B|----------0-------|-1--------3--0----|------------------|---------||
G|-2--------1-------|----------------1-|-2--------2-------|-2-------||
D|------------------|------------------|------------------|---------||
A|-0----------------|-0----------------|-0--------0-------|-0-------||
E|----------0-------|----------0-------|------------------|---------||
comments powered by Disqus
Наверх