Аккорды «Ren (singer)»

Ren (singer)
Популярные аккорды Ren (singer):
алфавиту | просмотрам | случайно
  • Intro:
    e|---------------------------------------8p0-7p0-5p0---------------------------|
    B|--5--6-5-4-5---------------------------------------8-6-5-4-6-5-3-1-0-6-5-3-1-|
    G|---------------5-4-2-1-2-4-5-7-9~--9-----------------------------------------|
    D|-----------------------------------------------------------------------------|
    A|-----------------------------------------------------------------------------|
    E|--5------------3-------1-------0-------5---------------------3---------------|
    
    e|-------------------------------------------------------||-------------------|
    B|-------------------------------------------------------||-------------------|
    G|--2-1-2-4-5-4-5-7-8/9~-9--9-10-9-7---------9--7--------||-9-7------9-7------|
    D|-----------------------------------10-9----------10--9-||-----10-9-----10-9-|…
Наверх