Аккорды Ren (singer) - Jenny's Tale

Добавлено: @romashka
Дата добавления: 06 Ноября 2019г.
Рейтинг:
0.0
Просмотров: 19
Транспонировать - +
Intro:
e|---------------------------------------8p0-7p0-5p0---------------------------|
B|--5--6-5-4-5---------------------------------------8-6-5-4-6-5-3-1-0-6-5-3-1-|
G|---------------5-4-2-1-2-4-5-7-9~--9-----------------------------------------|
D|-----------------------------------------------------------------------------|
A|-----------------------------------------------------------------------------|
E|--5------------3-------1-------0-------5---------------------3---------------|

e|-------------------------------------------------------||-------------------|
B|-------------------------------------------------------||-------------------|
G|--2-1-2-4-5-4-5-7-8/9~-9--9-10-9-7---------9--7--------||-9-7------9-7------|
D|-----------------------------------10-9----------10--9-||-----10-9-----10-9-| x2
A|-------------------------------------------------------||-------------------|
E|--1----------------0-----------0-----------0-----------||-0--------0--------|

Только аккорды с баре: Am Dm Em C }x2

[часть напевания Рена]
(шаблон)
 Am              Dm                Am                   Dm7
e|--5---5---5---5---5---5---5---5-----5---5---5---5---------------|
B|--5---5---5---5---6---6---6---6-----5---5---5---5-------6--6--6-|
G|--5---5---5---5----------7----------5---5---5---5-------5--5--5-|
D|---------7-----------7-------7-------------7------------7--7--7-|
A|-----7-------7---5---------------------7-------7--------5--5--5-|
E|-5---------------------------------5----------------------------|

[Глушение струн на Am и Dm]

Am                                Dm
Это была тихая, темная ночь на пустой улице где-то в Лондоне
 Am                                                    Dm7
Джейнни шла одна,волоча ногами, она торопилась домой лечь спать
      Am                                     
Ну, она знала этот город, она знала этот этаж, 
 Dm                                   
Потому что она прошла его около тысячи раз прежде че
   Am                    Dm7                    
Она хотела сбежать, могла ли она этого ожидать?

[Б-54321]

Am                              
Ну, в ту же ночь, в другом месте, 
      Dm
Шел с капюшоном пацан по имени Джеймс
  Am                                  
Ему было 14 лет, и он без ума от того, 
  Dm7
Что курил ганджу с пацанами
        Am           Dm
Джеймс,он вырос на улице, 
Dm
Его товарищи называли его "Визгом", он был быстр на ногах
      Am                                
Он был лжецом, вором в четырнадцать лет, 
Dm7
Дьявол собирался распылит его душу в прах

[Б-23456]

   Am
Когда Джейнни шла домой одна, она была не в себе
   Dm
Обычно она была в порядке, но было похоже, 
Dm
Что что-то было в воздухе

Am                                                 
Божественное вмешательство говорит ей остерегаться? 
                                               Dm7 
Или, может быть, интуиция заставляет ее так остерегаться?
 Am
Сирены звучат на расстоянии до удара ног Джейнни
Dm
Симфония ночи, которая перекликается 
Dm
С завыванием "шакалов" Лондона
 Am
Джейнни поворачивает за угол, их глаза встречаются
   Dm7
Наша несчастная девочка Дженни и пацан по имени "Визг"

Глушение струн: Am Dm

Am
"Отдавай мне сука деньги и побыстрее!
  Dm
Если ты сделаешь это, то останешься целее
        Am
Я хочу твою сумочку, твой телефон, не смотри на меня так блядь
     Dm7
Мне нужно это, Сука! Хули замолчала то А?"

[Б-54321]

 Am
Джейнни застыла будто статуя
 Dm
Надышавшаяся девушка азота в тёмной ночи 
Am                                                
Она пыталась найти силы в себе сдвинуться с места,
 Dm7
Но ноги были замурованы в клейстер

(глубокий вдох)

 Am
"Какого черта ты играешь? Ты играешь в игры со мной?
 Dm
Я клянусь блять богами! Я отрежу твои розовые щёки
                      Am       
Ты думаешь, я не это имел в виду, девчонка? Ты меня не знаешь!
        Dm7
Последнее, что ты увидишь, будет парень именуемый.."

Am
Визг потянулся к ножнам клинка с её зубами
            Dm
Он держал нож будто вырезал фигуру других дам
        Am
И он взмахнул одержимым, с дьяволом в груди
         Dm7 *
И из статуи она превратилась в масло на одном дыхании ...

[играем по аккорду]

Am                                    Dm 
Это была тихая тёмная ночь на пустой улице в Лондоне
 Am7
Дженни решила прилечь на холодном бетоне
      Dm7
Она нашла где поспать....
    Am7
Она знала этот город, она знала этот этаж
           Dm7
Так как она была там около тысячи раз,
                   Em7        F                          
Я думаю, что она сбежала... жаль что жизнь протянулась её 
     Am6
Так мало

[Б]

 /  вверх по струнам  
 p  срыв струны
~ - vibrato
* - играется один раз.
comments powered by Disqus
Наверх