Аккорды Sarah Crean - Rainy Day In Berlin

Добавлено: @romashka
Дата добавления: 15 Мая 2024г.
Рейтинг:
0.0
Просмотров: 6
[Intro]

e|--------------------------7-4p-7\4-2-9/11~---------------------------------|
B|7/9~------7\5\4\2~---7/9---------------------------------------------------|
G|------8--------------------------------------------------------------------|
D|---------------------------------------------------------------------------|
A|---------------------------------------------------------------------------|
E|---------------------------------------------------------------------------|

[Verse 1]

C#7m
Why should I whisper
                   G#m7
When they wouldn't stop
             C#m7
If I had a backbone, you call it
           G#m7     E
Then maybe I'd knock
             C#m7
What could I say to tell them
            G#m7
How much I have lost
                      C#7m
With those who don't care about others
           G#m7
Don't expect much

[Pre-Chorus]
E   C#m                             G#m7        E
Why do you waste valid time getting worked up?
                   C#m
It's not and never will be in your control.
                  G#m7
So watch for the drop

[Chorus]
            C#m    G#m
Cause it's a rainy day in Berlin
        E
Yet the courtyard remains intact
C#m             G#m7
Since they went running for miles
     E
Be a shame if they came back
               C#m
Only God knows what they would do
                       G#m7
To be locked out in the dark
   C#m       G#m7
So I'll stay inside for the day
          E
Who would want to be sad in that spot

[Riff (same as intro)]

e|--------------------------7-4p-7\4-2-9/11~---------------------------------|
B|7/9~------7\5\4\2~---7/9---------------------------------------------------|
G|------8--------------------------------------------------------------------|
D|---------------------------------------------------------------------------|
A|---------------------------------------------------------------------------|
E|---------------------------------------------------------------------------|

[Verse 2]
C#7m
What should I wish for
                 G#m7
Whеn they have it all
          C#m7
Even with cups ovеrflowing
              G#m7     E
They seek to find more
             C#m7                         G#m7
What could I say to tell them I have just enough
                     C#m7                              G#m7
With those who don’t like to feel bothered, you simply give up

[Pre-Chorus]
E   C#m                             G#m7        E
Why do you waste valid time getting worked up?
                   C#m
It's not and never will be in your control.
                  G#m7
So watch for the drop

[Chorus]

 C#m               G#m
Cause it's a rainy day in Berlin
        E
Yet the courtyard remains intact
C#m             G#m7
Since they went running for miles
     E
Be a shame if they came back
               C#m
Only God knows what they would do
                       G#m7
To be locked out in the dark
   C#m       G#m
So I'll stay inside for the day
          E
Who would want to be sad in that spot

[Outro]
C#m7 E C#m7 G#m7 E C#m7 G#m7 C#m G#m7 E

************************************

| p  Pull-off
| /  Slide up
| \  Slide down
| ~  Vibrato

************************************
Без музыки жизнь была бы заблуждением (Ницше)
Мы стремимся к созданию контента, соответствующего всем нормам законодательства и уважающего интеллектуальную собственность. Мы также придаем большое значение тому, чтобы не задеть никого и не оскорбить чьи-либо чувства. Если у вас есть вопросы или претензии по размещенному материалу, пожалуйста, сообщите нам об этом.
Шрифт
-
0
+
Прокрутка
-
0
+
Стоп
Наверх