Аккорды «Saves the Day»

Saves the Day
Saves The Day - рок-группа, образовалась в 1994 году в городе Принстон, штат Нью-Джерси. Цитата участников группы об их музыке: - "I was getting into Superchunk, Sunny Day Real Estate, Archers Of Loaf, Jawbreaker …, ” Conley recalls. “We would play as hard and fast as we possibly could without losing the melody." Сначала группа носила название Sefler, а к концу 1997 году стали называться Saves The Day. В 1998 году вышел дебютный альбом группы "Can't Slow Down", в это время участники коллектива… Читать полностью... Saves The Day - рок-группа, образовалась в 1994 году в городе Принстон, штат Нью-Джерси. Цитата участников группы об их музыке: - "I was getting into Superchunk, Sunny Day Real Estate, Archers Of Loaf, Jawbreaker …, ” Conley recalls. “We would play as hard and fast as we possibly could without losing the melody." Сначала группа носила название Sefler, а к концу 1997 году стали называться Saves The Day. В 1998 году вышел дебютный альбом группы "Can't Slow Down", в это время участники коллектива учились в университетах. В 1999 году вышел мини-альбом "I'm Sorry I'm Leaving". Позже вышел второй альбом "Through Being Cool". В 2001 году вышел альбом "Stay What You Are". После успеха этого альбома группа подписала контракт с лейблом Dreamworks Records. В 2003 году вышел альбом "In Reverie". В 2004 году вышел альбом "Ups and Downs: Early Recordings and B-Sides". В этом же году умирает бассист Sean McGrath от рака. Весь год группа не дает концертов и проводит в студии. В начале 2005 году начинают работу над новым альбомом. В октябре 2005 года выходит альбом "Sound The Alarm", а в январе 2006 года переиздают альбом на лейбле Vagrant. Также выпускают мини-альбом "Bug Sessions Volume One". С конца 2006 по начало 2007 годов Saves The Day отправляются в турне в поддержку альбома "Sound The Alarm". В феврале 2007 года анонсируют выход нового альбома "Under the Boards", который появляется в продаже 30 октября 2007 года. Скрыть...
Популярные аккорды Saves the Day:
алфавиту | просмотрам | случайно
  • Verse
    e|-----------------------------------------------------------------
    B|-----------------------------------------------------------------
    G|-----------------------------------------------------------------
    D|-----2--3--7---3---------2--5--3---------------------------------
    A|-3-5----3--7---------3-5----5--3---1-----------------------------
    E|--------1--5----------------3--1---------------------------------
    
    Chorus
    e|-----------------------------------------------------------------
    B|-----------------------------------------------------------------
    G|-5---------------------------------------------------------------
    D|-5--7--3--5------------------------------------------------------
    A|-3--7--3--5------------------------------------------------------
    E|----5--1--3------------------------------------------------------
    
    Bridge:
    e|-----------------------------------------------------------------
    B|-----------------------------------------------------------------
    G|-----------------------------------------------------------------
    D|-7-7--2-2--3-3----3-3--5-5--7----7-7--2-2--3----5----------------
    A|-7-7--2-2--3-3----3-3--5-5--7----7-7--2-2--3----5----------------
    E|-5-5--0-0--1-1----1-1--3-3--5----5-5--0-0--1----3----------------…
  • This song will become   the anthem of     your  underground
     .   .   .  .      .   .   .   .     .   .   .   .     .   .   .   .
    -----------------|-----------------|-----------------|-----------------
    -3---------------|-2---------------|-----------------|-----------------
    -----------------|-----------------|-----0-----------|-----------------
    -----------------|-----------------|-----------------|-----4-----------
    -----------------|-----------------|-----------------|-----------------
    -----------------|-----------------|-0---------------|-3---------------…
  • Chords Used:
    
         C   G   Em  F   Am
    e|---0---3-------0---5---|
    B|---1---3---0---1---5---|
    G|---0---0---0---2---5---|
    D|---2---0---2---3---7---|
    A|---3---2---2-------7---|
    E|-------3---0-------5---|
    
    
     C      G      Em…
  • Verse: (* = Palm Mute)
    e|------------------------------------------------|
    B|------------------------------------------------|
    G|--------3-5--66666--5-3---------5-6--88888--6-5-|
    D|-33333--3-5--66666--5-3--66666--5-6--88888--6-5-|
    A|-33333--1-3--44444--3-1--66666--3-4--66666--4-3-|
    E|-11111-------------------44444------------------|…
  • this song is in drop d tuning..
    intro/verse
    e----------------------------------------------------------------------
    b----------------------------------------------------------------------
    g-7-------9--------------7--------------7--------------5---------------
    d-7-(10x)-9-(3x)-9-------7-(3x)-5-------7--(3x)-3------5-(3x)-2--------
    a-5-------7------9-(10x)-5------5-(10x)-5-------3-(5x)-3------2-(5x)---
    d----------------9--------------5---------------3-------------2--------
    listen…
  • *All chords written below are strummed throught the measure unless otherwise  
    noted.
    
    E--0----0----3----2-------0----------------------------------------|
    B--1----0----3----3-------1----------------------------------------|
    G--0----0----0----2-------0------------------------------7-7-4-----|
    D--2----2----0----0-------2--------------------------4-5-------5---|
    A--3----2----2----0-------3-------------------------5-----------5--|
    E--0----0----3----x--(4x)-0-(2…
  • Intro 
    E|---------------------------------------|
    B|-------------------6666-5555-----------|
    G|-55555555-77777777---------------------|
    D|-----------------------------7777-5555-|
    A|---------------------------------------|
    E|---------------------------------------|
    
    Chorus…
  • Strum with Thumb
    e|-8---7---7--------------------------8---7---7---------------|
    B|-8---6---6---4--3------6---8---6----8---6---6---4--3------6-|
    G|-8---7---7---3--4--5---5---7---5----8---7---7---3--4--5---5-|
    D|-6---6---5---5--5--6---6---8---6----6---6---5---5--5--6---6-|
    A|-------------3--5--6---5---6---5----------------3--5--6---5-|
    E|----------------3--4-------------------------------3--4-----|
    
    e|-------------------------------------------------------------|
    B|-8-8-88--8-8--3-3-4-4---8-6-3-8-888-6-8-888-8-8-8-8--3-3-4-4-|
    G|-7-7-77--7-7--4-4-5-5---7-5-4-5-555-5-7-777-7-7-7-7--4-4-5-5-|
    D|-8-8-88--8-8--5-5-6-6---8-6-5-6-666-6-8-888-8-8-8-8--5-5-6-6-|
    A|-6-6-66--6-6--5-5-6-6---6-5-5-------5-6-666-8-8-8-8--5-5-6-6-|
    E|--------------3-3-4-4-------3------------------------3-3-4-4-|
    
    e|-8---7---7--------------------------8---7---7---------------|
    B|-8---6---6---4--3------6---8---6----8---6---6---4--3------6-|
    G|-8---7---7---3--4--5---5---7---5----8---7---7---3--4--5---5-|
    D|-6---6---5---5--5--6---6---8---6----6---6---5---5--5--6---6-|
    A|-------------3--5--6---5---6---5----------------3--5--6---5-|
    E|----------------3--4-------------------------------3--4-----|…
  • d                 a               g               Em
    this song will become the anthem of your under ground
    (continue)
    your 2 floors down...
    if i flooded...
                 a                   Em                 Bm*   a
    or would…
  • Chords used in this song
    C#m    B      A      E      Adim5
    |-4-|  |-2-|  |-0-|  |-0-|  |---|
    |-5-|  |-4-|  |-2-|  |-0-|  |---|
    |-6-|  |-4-|  |-2-|  |-1-|  |---|
    |-6-|  |-4-|  |-2-|  |-2-|  |-1-|
    |-4-|  |-2-|  |-0-|  |-2-|…
  • *Listen to song for timing*
    
    
    Verse
    
    g:-----------------------
    d:-----------------------
    a:----6----7-------------
    e:-------------7----9----
    
    Pre-Chorus
    
    g:--------------------------------------------------
    d:--------------------------------------------------
    a:----6666----7777----6666----66----7----99----7----
    e:--------------------------------------------------
    
    g:----------------------------------------
    d:----------------------------------------
    a:----6666----7777----9999----77----66----
    e:----------------------------------------
    
    Chorus
    
    g:--------------------------------
    d:--------------------------------
    a:---------------66----77----9----
    e:----77----99--------------------
    
    Outro
    
    g:----------------
    d:----------------
    a:----7777----9999
    e:----------------Verse…
  • Tune half step down
    
    riff 1
    eb|------------------|
    bb|------------------|
    gb|-9-9--7/97-------|
    db|-------------5----|
    ab|-7-7--5/75--5----|
    Eb|-------------3----|
    
    Verse
    
    eb|---------------------|
    bb|---------------------|
    gb|-9--7-----5----------|
    db|-9--7--5--5----------|
    ab|-7--5--5--3----------|x2
    Eb|-------3-------------|
    (not…
  • standard tuning
    
    |---------------------------------------|
    |---------------------------------------|
    |---------------------------------------|
    |---------4h6------------4-2-1----------|
    |-----------------2---------------------|
    |-0----4----------0---------------------|…
  • / = Slide up
    ^ = Vibrato
    ~ = Let ring
    
    VERSE 1 (1x)  
    e|---------------------------------------------------------------------------|
    B|---------------------------------------------------------------------------|
    G|---------------------------------------------------------------------------|
    D|--6-6---1---4---2-2---1-2-----4-4--1---2---2-2---1-7-4---------------------|
    A|--6-6-----2-----2-2-------4---4-4----4-----2-2-----------------------------|
    E|--4-4-----------0-0-----------2-2----------0-0-----------------------------|
    
    e|---------------------------------------------------------------------------|
    B|---------------------------------------------------------------------------|
    G|---------------------------------------------------------------------------|
    D|--6-6--x-x---1---4---2-2--x-x---1-2-----4-4--x-x---1-------2-2/33/55-------|
    A|--6-6--x-x-----2-----2-2--x-x-------4---4-4--x-x-----4-2---2-2/33/55-------|
    E|--4-4--x-x-----------0-0--x-x-----------2-2--x-x-----------0-0/11/33-------|…
  • Tune: Drop D (DADGBe)
    
    Intro (Distortion, Very Low Volume)
    
    e|--------------------------------------|
    B|--------------------------------------|
    G|----------------------------SLOWLY----|
    D|---8-----8-----8-----8~--TURN VOLUME--|
    A|--8-8---8-8---8-8----8~-------UP------|
    E|-8---8-8---8-8---8---8~---------------|
    
    ======================================
    Verse…
  • Intro
    e|----------------------------------------------------------|
    B|----------------------------------------------------------|
    G|----------------------------------------------------------|
    D|--11-11-11-11-11--11-11-11-11-11--7-7-7-7-7--7-7-7-7-7----|
    A|---9--9--9--9--9---9--9--9--9--9--5-5-5-5-5--5-5-5-5-5/4--|
    E|----------------------------------------------------------|
    
    Verse1
    e|----------------------------------|
    B|----------------------------------|
    G|----------------------------------|
    D|----------------------------------|
    A|--2~~~~~--7~~~~~--2~~~~~--7~~~~~--|
    E|--0~~~~~--5~~~~~--0~~~~~--5~~~~~--|
    
    Pre-Chorus
    e|-------------------------|
    B|-------------------------|
    G|-------------------------|
    D|--7-7/6-67--7-7/6-------|
    A|--5-5/4-45--5-5/4--2-2--|
    E|--------------------0-0--|
    
    e|--------------------------------------|
    B|--------------------------------------|
    G|--6-6--7-7--9-9--11-11--13-13--14-14--|
    D|--------------------------------------|
    A|--4-4--5-5--7-7---9--9--11-11--12-12--|
    E|--------------------------------------|
    
    Chorus
    e|-------------------------------|--------------------------|
    B|-------------------------------|--------------------------|
    G|-------------------------------|--------------------------|
    D|-------------6--9-9-9-9-9--14--|-----------6--------------|
    A|--7-7-7-7-7--4--7-7-7-7-7--12--|--7-7-7-7--4--4-4-4-4--2--|
    E|--5-5-5-5-5--------------------|--5-5-5-5-----2-2-2-2--0--|
    
    e|--------------------|
    B|--------------------|
    G|--------------------|
    D|--------------------|
    A|--4-4-4-4--2-2-2-2--|
    E|--2-2-2-2--0-0-0-0--|
    
    Verse2
    e|------------------------------------------------|
    B|------------------------------------------------|
    G|------------------------------------------------|
    D|------------------------7-7-7-7-7--7-7-7-7-7----|
    A|--4-4-4-4-4--4-4-4-4-4--5-5-5-5-5--5-5-5-5-5/4--|
    E|--2-2-2-2-2--2-2-2-2-2--------------------------|
    
    Bridge
    e|--------------------|------------------------------------------------------|
    B|--------------------|------------------------------------------------------|
    G|--------------------|------------------------------------------------------|
    D|--------------------|--7-7-7-7-7-7---------------7-7-7-7-7-7---------------|
    A|--7~~--7-7-7-7-7-7--|--5-5-5-5-5-5--7-7-7-7-7-7--5-5-5-5-5-5--7-7-7-7-7-7--|
    E|--5~~--5-5-5-5-5-5--|---------------5-5-5-5-5-5---------------5-5-5-5-5-5--|…
  • DROP D TUNING!!
    
    
    e|-----------------------------------------------------|
    B|-----------------------------------------------------|
    G|-----------------------------------------------------|
    D|--4--33--44--44--44--33--6868999---------------------|
    A|--4--44--66--22--44--44--6868999---------------------|
    E|--4--------------44------6868999---------------------|
    
    Pre-chorus
    e|-----------------------------------------------------|
    B|-----------------------------------------------------|
    G|-----------------------------------------------------|
    D|-----------------------------------------------------|
    A|--6666--9999-----------------------------------------|
    E|--6666--9999-----------------------------------------|
    
    Chorus
    e|-----------------------------------------------------|
    B|-----------------------------------------------------|
    G|--------4--------------4--6--------------------------|
    D|--4--3--4--4--6--4--8--4--6--------------------------|
    A|--4--4--2--4--4--6--8--2--4--------------------------|
    E|--4--------4--------8--------------------------------|
    
    The…
  • e|-0-------------------------------------------------------------------------|
    B|-0-------------------------------------------------------------------------|
    G|-0-----------4-4-4-4-6-6-6-9-9-9-------------------------------------------|
    D|-0-----------4-4-4-4-6-6-6-9-9-9-------------------------------------------|
    A|-0-----------2-2-2-2-4-4-4-7-7-7-------------------------------------------|
    E|-0-------------------------------------------------------------------------|…
  • Intro - Guitar 1                             
    e|-----5-------5-------4-------5---|       
    B|---5---5---5---5---5---5---5---5-|
    G|-4-------4-------4-------6-------|
    D|---------------------------------|
    A|---------------------------------|
    E|---------------------------------|…
  • Intro
    G----------------------------------------------------------
    D-5--5--5-5--5-5--5-5-5-5-5--3--5--5--5-5--5-5--5-5-5-5-5--
    A----------------------------------------------------------
    E----------------------------------------------------------
    
    Part…
  • e|----------------------------------------------------------------------
    B|----------------------------------------------------------------------
    G|----------------------------------------------------------------------
    D|---------------------------------6------------------------------------
    A|-/8-8-8-6-4-6-4---/8-8-8-6-4-6-8---8-6-8-9-8-6-4-6-8-6-4---4-6----6---
    E|----------------4----------------------------------------6-----64-----…
  • PLAY 2X         PLAY 2X           PLAY 2X
      
    G-----6------7---6 ----6-----7--6- -----6---7---6-----------
    D-7-7----7-7---7-- --------------- -4-4--4-4--4-------------
    A-----------------  7-7---7-7---7- -------------------------
    E-----------------…
  • {Rhythm Figure 1}
    E--------------------0---------------------|
    B--------------------0---------------------|
    G-4-------4----------2------9-----8--9--8-|
    D-4-------4-----x---2------9-----x--x--x-|
    A-2-------2-----x---0------7-----6--7--6-|
    E---------------x-------------------------|
    
    Play…
Наверх