Аккорды Сергей Шнуров - Тема дороги

Добавлено: @romashka
Дата добавления: 15 Октября 2018г.
Рейтинг:
0.0
Просмотров: 32
Транспонировать - +
Вся песня играется на 2-х аккордах: 
Em(VII) Am(XII) 

Вторая гитара: 1|-7-           1|-12-
               2|-8- Em(VII)   2|-13- Am(XII) 
               3|-9-           3|-14- 

Бас: 
2|--------------------------------------------------2-------2-2242---------------------|
3|-------2-------2-2232--------2-------2-2232-0-3-0---0-3-0-------------2-------2-10---|
4|-0-3-0---0-3-0--------0-3-0---0-3-0-----------------------------0-3-0---0-3-0-----32-|

Аккордеон: 
1|-7-------|  1|-8---------|
2|---8-7-8-|  2|---10-9-10-|

В конце играется: 2|-11-10-8----| 
                  3|---------11-| 

Аккордеон в конце песни:  
1|-7-7----------------12-|  
2|-----10-8-----------12-|  
3|----------9------------|  

1|-8-8-7--------------12-|
2|-------10-----------12-|
3|----------9------------|


Электро-гитара в конце песни: 
4|------------9------------8-|
5|-5-7-10-5-7---5-7-10-5-7---|

Бой на 2-х гитарах одинаковый: Вниз-Вверх(отрывисто)-Вниз-Вверх(отрывисто)-Вниз-Вверх-Вниз-Вверх
comments powered by Disqus
Наверх