Аккорды Северный Флот - Иной

Добавлено: @romashka
Дата добавления: 14 Апреля 2018г.
Рейтинг:
0.0
Просмотров: 18
Транспонировать - +
Вступление: x4
  C#m          C#m           C#m          C#m
1)------4-7--4-------4-4-----------4-7--4-------4-4----
2)------------------------7--------------------------7-
3)-6--6---------6--6----------6--6---------6--6--------

Куплет:
        C#m         C#sus2 
Кажется уже давным-давно
            E      F#
Я как чёрно-белое кино
         C#m     C#sus2
Между суетой и тишиной
           E        F#
А во мне,и он всему виной
         C#m 
Скалится Иной

  C#m          C#m           C#m          C#m
1)------4-7--4-------4-4-----------4-7--4-------4-4---- }
2)------------------------7--------------------------7- } x2
3)-6--6---------6--6----------6--6---------6--6-------- }

Куплет:
        C#m          C#sus2
Натупает ночь - и вот он я,
          E          F#  
Сбрасывая кожу, как змея
        C#m      C#sus2 
Обретая мысли остроту
           E           F#
Ухожу всё дальше по мосту
            A             A       G#m          G       
И не твёрдо помню сколько раз уже я падал в пустоту

Припев:
 C#m     C#m  F#      A / G
Горит в огне вира в стеле
   C#m    C#m  F#      A / G
Кричит во сне Иной во мне

  C#m          C#m           C#m          C#m
1)------4-7--4-------4-4-----------4-7--4-------4-4---- }
2)------------------------7--------------------------7- } x2
3)-6--6---------6--6----------6--6---------6--6-------- }

Куплет:
        C#m     C#sus2 
Самые тяжёлые слова,
            E        F#
От которых кругом голова,
           C#m        C#sus2 
Всё мне это кажется смешным,
            E           F#
Я стою под ливнем проливным.
            A            A         G#m         G 
И не твёрдо помню что случилось и когда я стал Иным.

Припев:
 C#m     C#m  F#      A / G
Горит в огне вира в стеле
   C#m    C#m  F#      A / G  A
Кричит во сне Иной во мне

Проигрыш:
  A                       E
Позабылся день вчерашний (Позабылся день вчерашний)
 E                  A   
Завтра ещё не наступил (Завтра ещё не наступил)
  A                         E
Мне уже привычно страшно (Мне уже привычно страшно)
E       
Он меня убил (Он меня убил)
A
Я сижу в разбитом кресле,
   A
В запылённом старом кресле
  E
Врядли завтра я воскресну
E   
Я, скорей всего, исчезну
 A
Позабылся день вчерашний,
  A
Смялся мой корабль бумажный.
 E
Навсегда проиграной войной,
D
И я Иной!

Припев:
 C#m     C#m  F#      A / G
Горит в огне вира в стеле
   C#m    C#m  F#      A / G
Кричит во сне Иной во мне

Кода:
  C#m          C#m           C#m          C#m
1)------4-7--4-------4-4-----------4-7--4-------4-4---- }
2)------------------------7--------------------------7- } x4
3)-6--6---------6--6----------6--6---------6--6-------- }

Бой Куплет: V v ^ ^ v ^. Припев,Проигрыш: V v ^ ^ v ^  V v ^ ^ v ^.
comments powered by Disqus
Наверх