Аккорды Шары - Неподвижная детская игра, в которой проигрывает заговоривший первым

Добавлено: @romashka
Дата добавления: 07 Марта 2020г.
Рейтинг:
0.0
Просмотров: 27
Транспонировать - +
G(Один такт)

G                         Em  C
Давай сыграем с тобой в молчанку,
G                 Em       C          
Ни слова больше, больше никому.
G                      Em  C  
Хочешь прошепчу на ухо тайну?
G               Em          C
Через секунду превратится в слух.

Am          
Все, что я тебе скажу,
C            Am            G  C
Все, что я тебе скажу, ты знаешь.
Em             D          C
Правда с ложью затанцует вальс.
G                       Em C
В августе, пока он не растаял,
G             Em         C    
Принесу снег, превратим его в грязь,
           G      
Превратим его.

G                          Em  C
Давай откроем друг другу секреты,
   G          Em          C        
Пускай алюсники расскажут всем.
    G                           Em  C  
Ты соберешь все сплетни, к концу лета,
  G            Em           C
И понесешь их дальше по стране.

 Am          
Но все, что я тебе скажу,
 C                Am      G
Все, что я тебе скажу, ты знаешь.
Em             D           C
Правда с ложью затанцует вальс.
G                     Em   C
В августе, пока он не растаял,
G               Em         C 
Принесу снег, превратим его в грязь,
           G       Em       G       Em
Превратим его, превратим его.


C                Am    G
Все, что я тебе скажу, ты знаешь,
Em             D           C
Правда с ложью затанцует вальс.
G                     Em   C
В августе, пока он не растаял,
G               Em         C 
Принесу снег, превратим его в грязь,
G
Превратим его, превратим его.
  
  G
1:------------------------------------------|
2:------------------------------------------|
3:---4---------4---------4---------4--------|
4:--------5---------5---------5---------5---|
5:------------------------------------------|
6:-3----3----3----3----3----3----3----3-----|

  Em                 C
1:------------------------------------------|
2:-----------------------5---------5--------|
3:---0---------0--------------5---------5---|
4:--------2---------2-----------------------|
5:---------------------3----3----3----3-----|
6:-0----0----0----0-------------------------|

Оригинал на полтона ниже.
comments powered by Disqus
Наверх